  0
SECTION
  2
HEADER
  9
$ACADVER
  1
AC1014
  9
$HANDSEED
  5
FFFF
  9
$MEASUREMENT
 70
     1
  0
ENDSEC
  0
SECTION
  2
TABLES
  0
TABLE
  2
VPORT
  5
8
330
0
100
AcDbSymbolTable
 70
     4
  0
VPORT
  5
2E
330
8
100
AcDbSymbolTableRecord
100
AcDbViewportTableRecord
  2
*ACTIVE
 70
     0
 10
0.0
 20
0.0
 11
1.0
 21
1.0
 12
210.0
 22
148.5
 13
0.0
 23
0.0
 14
10.0
 24
10.0
 15
10.0
 25
10.0
 16
0.0
 26
0.0
 36
1.0
 17
0.0
 27
0.0
 37
0.0
 40
341.0
 41
1.24
 42
50.0
 43
0.0
 44
0.0
 50
0.0
 51
0.0
 71
     0
 72
   100
 73
     1
 74
     3
 75
     0
 76
     0
 77
     0
 78
     0
  0
ENDTAB
  0
TABLE
  2
LTYPE
  5
5
330
0
100
AcDbSymbolTable
 70
     1
  0
LTYPE
  5
14
330
5
100
AcDbSymbolTableRecord
100
AcDbLinetypeTableRecord
  2
BYBLOCK
 70
     0
  3

 72
    65
 73
     0
 40
0.0
  0
LTYPE
  5
15
330
5
100
AcDbSymbolTableRecord
100
AcDbLinetypeTableRecord
  2
BYLAYER
 70
     0
  3

 72
    65
 73
     0
 40
0.0
  0
LTYPE
  5
16
330
5
100
AcDbSymbolTableRecord
100
AcDbLinetypeTableRecord
  2
CONTINUOUS
 70
     0
  3
Solid line
 72
    65
 73
     0
 40
0.0
  0
ENDTAB
  0
TABLE
  2
LAYER
  5
2
100
AcDbSymbolTable
 70
2
  0
LAYER
  5
50
100
AcDbSymbolTableRecord
100
AcDbLayerTableRecord
  2
0
 70
0
  6
CONTINUOUS
  0
LAYER
  5
51
100
AcDbSymbolTableRecord
100
AcDbLayerTableRecord
  2
Layer_1
 70
0
  6
CONTINUOUS
  0
ENDTAB
  0
TABLE
  2
STYLE
  5
3
330
0
100
AcDbSymbolTable
 70
     1
  0
STYLE
  5
11
330
3
100
AcDbSymbolTableRecord
100
AcDbTextStyleTableRecord
  2
STANDARD
 70
     0
 40
0.0
 41
1.0
 50
0.0
 71
     0
 42
2.5
  3
txt
  4

  0
ENDTAB
  0
TABLE
  2
VIEW
  5
6
330
0
100
AcDbSymbolTable
 70
     0
  0
ENDTAB
  0
TABLE
  2
UCS
  5
7
330
0
100
AcDbSymbolTable
 70
     0
  0
ENDTAB
  0
TABLE
  2
APPID
  5
9
330
0
100
AcDbSymbolTable
 70
     2
  0
APPID
  5
12
330
9
100
AcDbSymbolTableRecord
100
AcDbRegAppTableRecord
  2
ACAD
 70
     0
  0
ENDTAB
  0
TABLE
  2
DIMSTYLE
  5
A
330
0
100
AcDbSymbolTable
 70
     1
  0
DIMSTYLE
105
27
330
A
100
AcDbSymbolTableRecord
100
AcDbDimStyleTableRecord
  2
ISO-25
 70
     0
  3

  4

  5

  6

  7

 40
1.0
 41
2.5
 42
0.625
 43
3.75
 44
1.25
 45
0.0
 46
0.0
 47
0.0
 48
0.0
140
2.5
141
2.5
142
0.0
143
0.03937007874016
144
1.0
145
0.0
146
1.0
147
0.625
 71
     0
 72
     0
 73
     0
 74
     0
 75
     0
 76
     0
 77
     1
 78
     8
170
     0
171
     3
172
     1
173
     0
174
     0
175
     0
176
     0
177
     0
178
     0
270
     2
271
     2
272
     2
273
     2
274
     3
340
11
275
     0
280
     0
281
     0
282
     0
283
     0
284
     8
285
     0
286
     0
287
     3
288
     0
  0
ENDTAB
  0
TABLE
  2
BLOCK_RECORD
  5
1
330
0
100
AcDbSymbolTable
 70
     1
  0
BLOCK_RECORD
  5
1F
330
1
100
AcDbSymbolTableRecord
100
AcDbBlockTableRecord
  2
*MODEL_SPACE
  0
BLOCK_RECORD
  5
1B
330
1
100
AcDbSymbolTableRecord
100
AcDbBlockTableRecord
  2
*PAPER_SPACE
  0
ENDTAB
  0
ENDSEC
  0
SECTION
  2
BLOCKS
  0
BLOCK
  5
20
330
1F
100
AcDbEntity
  8
0
100
AcDbBlockBegin
  2
*MODEL_SPACE
 70
     0
 10
0.0
 20
0.0
 30
0.0
  3
*MODEL_SPACE
  1

  0
ENDBLK
  5
21
330
1F
100
AcDbEntity
  8
0
100
AcDbBlockEnd
  0
BLOCK
  5
1C
330
1B
100
AcDbEntity
 67
     1
  8
0
100
AcDbBlockBegin
  2
*PAPER_SPACE
  1

  0
ENDBLK
  5
1D
330
1B
100
AcDbEntity
 67
     1
  8
0
100
AcDbBlockEnd
  0
ENDSEC
  0
SECTION
  2
ENTITIES
  0
SPLINE
  5
100
100
AcDbEntity
  8
Layer_1
 62
7
100
AcDbSpline
 70
8
 71
3
 72
8
 73
4
 74
0
 40
0
 40
0
 40
0
 40
0
 40
1
 40
1
 40
1
 40
1
 10
68.140831
 20
300.144509
 30
0.0
 10
89.474164
 20
300.145074
 30
0.0
 10
110.807500
 20
300.144792
 30
0.0
 10
132.140833
 20
300.144509
 30
0.0
  0
LWPOLYLINE
  5
101
100
AcDbEntity
  8
Layer_1
 62
7
100
AcDbPolyline
 90
35
 70
0
 10
196.141111
 20
372.143649
 30
0.0
 10
176.141109
 20
372.143649
 30
0.0
 10
176.141109
 20
376.143641
 30
0.0
 10
164.141110
 20
376.143641
 30
0.0
 10
164.141110
 20
372.143649
 30
0.0
 10
144.141111
 20
372.143649
 30
0.0
 10
144.141111
 20
376.143641
 30
0.0
 10
132.140833
 20
376.144488
 30
0.0
 10
132.140833
 20
372.144468
 30
0.0
 10
68.140831
 20
372.144468
 30
0.0
 10
68.140831
 20
376.144488
 30
0.0
 10
56.141109
 20
376.144206
 30
0.0
 10
56.141109
 20
372.144214
 30
0.0
 10
36.141110
 20
372.144214
 30
0.0
 10
36.141110
 20
376.144206
 30
0.0
 10
24.141111
 20
376.144206
 30
0.0
 10
24.141111
 20
372.144214
 30
0.0
 10
4.141139
 20
372.144214
 30
0.0
 10
4.140829
 20
360.144497
 30
0.0
 10
0.140837
 20
360.144497
 30
0.0
 10
0.140831
 20
352.144528
 30
0.0
 10
4.140830
 20
352.144528
 30
0.0
 10
4.140830
 20
320.144527
 30
0.0
 10
0.140839
 20
320.144511
 30
0.0
 10
0.140837
 20
312.144499
 30
0.0
 10
4.140829
 20
312.144499
 30
0.0
 10
4.141139
 20
300.144831
 30
0.0
 10
24.141111
 20
300.144823
 30
0.0
 10
24.141111
 20
296.144823
 30
0.0
 10
36.141110
 20
296.144823
 30
0.0
 10
36.141110
 20
300.144823
 30
0.0
 10
56.141109
 20
300.144823
 30
0.0
 10
56.141109
 20
296.144823
 30
0.0
 10
68.140831
 20
296.144512
 30
0.0
 10
68.140831
 20
300.144509
 30
0.0
  0
LWPOLYLINE
  5
102
100
AcDbEntity
  8
Layer_1
 62
7
100
AcDbPolyline
 90
18
 70
0
 10
132.140833
 20
300.144509
 30
0.0
 10
132.140833
 20
296.144512
 30
0.0
 10
144.141111
 20
296.144823
 30
0.0
 10
144.141111
 20
300.144823
 30
0.0
 10
164.141110
 20
300.144823
 30
0.0
 10
164.141110
 20
296.144823
 30
0.0
 10
176.141109
 20
296.144823
 30
0.0
 10
176.141109
 20
300.144823
 30
0.0
 10
196.141111
 20
300.144831
 30
0.0
 10
196.140829
 20
312.144499
 30
0.0
 10
200.140827
 20
312.144499
 30
0.0
 10
200.140832
 20
320.144527
 30
0.0
 10
196.140838
 20
320.144542
 30
0.0
 10
196.140555
 20
352.144787
 30
0.0
 10
200.140832
 20
352.144528
 30
0.0
 10
200.140827
 20
360.144526
 30
0.0
 10
196.140829
 20
360.144526
 30
0.0
 10
196.141111
 20
372.143649
 30
0.0
  0
LWPOLYLINE
  5
103
100
AcDbEntity
  8
Layer_1
 62
7
100
AcDbPolyline
 90
5
 70
0
 10
8.141108
 20
92.144802
 30
0.0
 10
12.141109
 20
92.144802
 30
0.0
 10
12.141109
 20
96.144822
 30
0.0
 10
8.141108
 20
96.144822
 30
0.0
 10
8.141108
 20
92.144802
 30
0.0
  0
LWPOLYLINE
  5
104
100
AcDbEntity
  8
Layer_1
 62
7
100
AcDbPolyline
 90
5
 70
0
 10
188.141096
 20
96.144822
 30
0.0
 10
192.141088
 20
96.144822
 30
0.0
 10
192.141088
 20
92.144802
 30
0.0
 10
188.141096
 20
92.144802
 30
0.0
 10
188.141096
 20
96.144822
 30
0.0
  0
SPLINE
  5
105
100
AcDbEntity
  8
Layer_1
 62
7
100
AcDbSpline
 70
8
 71
3
 72
8
 73
4
 74
0
 40
0
 40
0
 40
0
 40
0
 40
1
 40
1
 40
1
 40
1
 10
0.141111
 20
28.144752
 30
0.0
 10
0.141111
 20
22.759585
 30
0.0
 10
0.141111
 20
11.989376
 30
0.0
 10
0.141111
 20
11.989376
 30
0.0
  0
LWPOLYLINE
  5
106
100
AcDbEntity
  8
Layer_1
 62
7
100
AcDbPolyline
 90
7
 70
0
 10
4.141108
 20
100.144806
 30
0.0
 10
4.141108
 20
88.144827
 30
0.0
 10
0.141108
 20
88.144827
 30
0.0
 10
0.141109
 20
72.144822
 30
0.0
 10
4.141108
 20
72.144822
 30
0.0
 10
4.141103
 20
28.144752
 30
0.0
 10
0.141111
 20
28.144752
 30
0.0
  0
SPLINE
  5
107
100
AcDbEntity
  8
Layer_1
 62
7
100
AcDbSpline
 70
8
 71
3
 72
8
 73
4
 74
0
 40
0
 40
0
 40
0
 40
0
 40
1
 40
1
 40
1
 40
1
 10
200.141112
 20
12.166188
 30
0.0
 10
200.141112
 20
12.166188
 30
0.0
 10
200.141072
 20
22.818570
 30
0.0
 10
200.141072
 20
28.144780
 30
0.0
  0
LWPOLYLINE
  5
108
100
AcDbEntity
  8
Layer_1
 62
7
100
AcDbPolyline
 90
6
 70
0
 10
0.141111
 20
11.989376
 30
0.0
 10
4.141111
 20
12.144739
 30
0.0
 10
4.141111
 20
0.144735
 30
0.0
 10
196.141111
 20
0.144735
 30
0.0
 10
196.141151
 20
12.144739
 30
0.0
 10
200.141112
 20
12.166188
 30
0.0
  0
LWPOLYLINE
  5
109
100
AcDbEntity
  8
Layer_1
 62
7
100
AcDbPolyline
 90
8
 70
0
 10
200.141072
 20
28.144780
 30
0.0
 10
196.141052
 20
28.144780
 30
0.0
 10
196.141109
 20
72.144822
 30
0.0
 10
200.141109
 20
72.144822
 30
0.0
 10
200.141109
 20
88.144799
 30
0.0
 10
196.141109
 20
88.144799
 30
0.0
 10
196.141109
 20
100.144806
 30
0.0
 10
4.141108
 20
100.144806
 30
0.0
  0
LWPOLYLINE
  5
10a
100
AcDbEntity
  8
Layer_1
 62
7
100
AcDbPolyline
 90
5
 70
0
 10
24.141103
 20
8.144747
 30
0.0
 10
24.141103
 20
12.144767
 30
0.0
 10
36.141101
 20
12.144767
 30
0.0
 10
36.141101
 20
8.144747
 30
0.0
 10
24.141103
 20
8.144747
 30
0.0
  0
LWPOLYLINE
  5
10b
100
AcDbEntity
  8
Layer_1
 62
7
100
AcDbPolyline
 90
5
 70
0
 10
56.141101
 20
12.144767
 30
0.0
 10
56.141101
 20
8.144747
 30
0.0
 10
68.141108
 20
8.144832
 30
0.0
 10
68.141108
 20
12.144852
 30
0.0
 10
56.141101
 20
12.144767
 30
0.0
  0
LWPOLYLINE
  5
10c
100
AcDbEntity
  8
Layer_1
 62
7
100
AcDbPolyline
 90
5
 70
0
 10
132.141110
 20
12.144852
 30
0.0
 10
132.141110
 20
8.144832
 30
0.0
 10
144.141103
 20
8.144747
 30
0.0
 10
144.141103
 20
12.144767
 30
0.0
 10
132.141110
 20
12.144852
 30
0.0
  0
LWPOLYLINE
  5
10d
100
AcDbEntity
  8
Layer_1
 62
7
100
AcDbPolyline
 90
5
 70
0
 10
164.141102
 20
12.144767
 30
0.0
 10
176.141101
 20
12.144767
 30
0.0
 10
176.141101
 20
8.144747
 30
0.0
 10
164.141102
 20
8.144747
 30
0.0
 10
164.141102
 20
12.144767
 30
0.0
  0
LWPOLYLINE
  5
10e
100
AcDbEntity
  8
Layer_1
 62
7
100
AcDbPolyline
 90
5
 70
0
 10
24.141109
 20
92.144822
 30
0.0
 10
36.141107
 20
92.144822
 30
0.0
 10
36.141107
 20
88.144830
 30
0.0
 10
24.141109
 20
88.144830
 30
0.0
 10
24.141109
 20
92.144822
 30
0.0
  0
LWPOLYLINE
  5
10f
100
AcDbEntity
  8
Layer_1
 62
7
100
AcDbPolyline
 90
5
 70
0
 10
56.141109
 20
88.144821
 30
0.0
 10
56.141109
 20
92.144813
 30
0.0
 10
68.141108
 20
92.144813
 30
0.0
 10
68.141108
 20
88.144821
 30
0.0
 10
56.141109
 20
88.144821
 30
0.0
  0
LWPOLYLINE
  5
110
100
AcDbEntity
  8
Layer_1
 62
7
100
AcDbPolyline
 90
5
 70
0
 10
132.141107
 20
92.144813
 30
0.0
 10
132.141107
 20
88.144821
 30
0.0
 10
144.141108
 20
88.144821
 30
0.0
 10
144.141108
 20
92.144813
 30
0.0
 10
132.141107
 20
92.144813
 30
0.0
  0
LWPOLYLINE
  5
111
100
AcDbEntity
  8
Layer_1
 62
7
100
AcDbPolyline
 90
5
 70
0
 10
164.141108
 20
92.144822
 30
0.0
 10
176.141106
 20
92.144822
 30
0.0
 10
176.141106
 20
88.144830
 30
0.0
 10
164.141108
 20
88.144830
 30
0.0
 10
164.141108
 20
92.144822
 30
0.0
  0
LWPOLYLINE
  5
112
100
AcDbEntity
  8
Layer_1
 62
7
100
AcDbPolyline
 90
5
 70
0
 10
8.141116
 20
8.144804
 30
0.0
 10
12.141108
 20
8.144804
 30
0.0
 10
12.141108
 20
4.144812
 30
0.0
 10
8.141116
 20
4.144812
 30
0.0
 10
8.141116
 20
8.144804
 30
0.0
  0
SPLINE
  5
113
100
AcDbEntity
  8
Layer_1
 62
7
100
AcDbSpline
 70
8
 71
3
 72
8
 73
4
 74
0
 40
0
 40
0
 40
0
 40
0
 40
1
 40
1
 40
1
 40
1
 10
104.141106
 20
16.144804
 30
0.0
 10
104.141106
 20
13.935682
 30
0.0
 10
102.350245
 20
12.144812
 30
0.0
 10
100.141106
 20
12.144812
 30
0.0
  0
SPLINE
  5
114
100
AcDbEntity
  8
Layer_1
 62
7
100
AcDbSpline
 70
8
 71
3
 72
8
 73
4
 74
0
 40
0
 40
0
 40
0
 40
0
 40
1
 40
1
 40
1
 40
1
 10
100.141106
 20
12.144812
 30
0.0
 10
97.931966
 20
12.144812
 30
0.0
 10
96.141105
 20
13.935682
 30
0.0
 10
96.141105
 20
16.144804
 30
0.0
  0
SPLINE
  5
115
100
AcDbEntity
  8
Layer_1
 62
7
100
AcDbSpline
 70
8
 71
3
 72
8
 73
4
 74
0
 40
0
 40
0
 40
0
 40
0
 40
1
 40
1
 40
1
 40
1
 10
96.141105
 20
16.144804
 30
0.0
 10
96.141105
 20
18.353955
 30
0.0
 10
97.931966
 20
20.144825
 30
0.0
 10
100.141106
 20
20.144825
 30
0.0
  0
SPLINE
  5
116
100
AcDbEntity
  8
Layer_1
 62
7
100
AcDbSpline
 70
8
 71
3
 72
8
 73
4
 74
0
 40
0
 40
0
 40
0
 40
0
 40
1
 40
1
 40
1
 40
1
 10
100.141106
 20
20.144825
 30
0.0
 10
102.350245
 20
20.144825
 30
0.0
 10
104.141106
 20
18.353955
 30
0.0
 10
104.141106
 20
16.144804
 30
0.0
  0
LWPOLYLINE
  5
117
100
AcDbEntity
  8
Layer_1
 62
7
100
AcDbPolyline
 90
5
 70
0
 10
188.141108
 20
8.144804
 30
0.0
 10
192.141100
 20
8.144804
 30
0.0
 10
192.141100
 20
4.144812
 30
0.0
 10
188.141108
 20
4.144812
 30
0.0
 10
188.141108
 20
8.144804
 30
0.0
  0
LWPOLYLINE
  5
118
100
AcDbEntity
  8
Layer_1
 62
7
100
AcDbPolyline
 90
2
 70
0
 10
104.141106
 20
16.144804
 30
0.0
 10
104.141106
 20
16.144804
 30
0.0
  0
SPLINE
  5
119
100
AcDbEntity
  8
Layer_1
 62
7
100
AcDbSpline
 70
8
 71
3
 72
8
 73
4
 74
0
 40
0
 40
0
 40
0
 40
0
 40
1
 40
1
 40
1
 40
1
 10
68.140831
 20
212.144537
 30
0.0
 10
89.474164
 20
212.145101
 30
0.0
 10
110.807500
 20
212.144819
 30
0.0
 10
132.140833
 20
212.144537
 30
0.0
  0
LWPOLYLINE
  5
11a
100
AcDbEntity
  8
Layer_1
 62
7
100
AcDbPolyline
 90
35
 70
0
 10
196.141111
 20
284.143650
 30
0.0
 10
176.141109
 20
284.143650
 30
0.0
 10
176.141109
 20
292.144823
 30
0.0
 10
164.141110
 20
292.144823
 30
0.0
 10
164.141110
 20
284.143650
 30
0.0
 10
144.141111
 20
284.143650
 30
0.0
 10
144.141111
 20
292.144823
 30
0.0
 10
132.140833
 20
292.145669
 30
0.0
 10
132.140833
 20
284.144468
 30
0.0
 10
68.140831
 20
284.144468
 30
0.0
 10
68.140831
 20
292.145669
 30
0.0
 10
56.141109
 20
292.145387
 30
0.0
 10
56.141109
 20
284.144214
 30
0.0
 10
36.141110
 20
284.144214
 30
0.0
 10
36.141110
 20
292.145387
 30
0.0
 10
24.141111
 20
292.145387
 30
0.0
 10
24.141111
 20
284.144214
 30
0.0
 10
4.141140
 20
284.144214
 30
0.0
 10
4.140829
 20
272.144498
 30
0.0
 10
0.140837
 20
272.144498
 30
0.0
 10
0.140831
 20
264.144529
 30
0.0
 10
4.140831
 20
264.144529
 30
0.0
 10
4.140831
 20
232.144528
 30
0.0
 10
0.140839
 20
232.144511
 30
0.0
 10
0.140837
 20
224.144499
 30
0.0
 10
4.140829
 20
224.144499
 30
0.0
 10
4.141140
 20
212.144830
 30
0.0
 10
24.141111
 20
212.144822
 30
0.0
 10
24.141111
 20
208.144824
 30
0.0
 10
36.141110
 20
208.144824
 30
0.0
 10
36.141110
 20
212.144822
 30
0.0
 10
56.141109
 20
212.144822
 30
0.0
 10
56.141109
 20
208.144824
 30
0.0
 10
68.140831
 20
208.144542
 30
0.0
 10
68.140831
 20
212.144537
 30
0.0
  0
SPLINE
  5
11b
100
AcDbEntity
  8
Layer_1
 62
7
100
AcDbSpline
 70
8
 71
3
 72
8
 73
4
 74
0
 40
0
 40
0
 40
0
 40
0
 40
1
 40
1
 40
1
 40
1
 10
97.396176
 20
128.147374
 30
0.0
 10
97.396176
 20
127.455704
 30
0.0
 10
96.835457
 20
126.895013
 30
0.0
 10
96.143815
 20
126.895013
 30
0.0
  0
SPLINE
  5
11c
100
AcDbEntity
  8
Layer_1
 62
7
100
AcDbSpline
 70
8
 71
3
 72
8
 73
4
 74
0
 40
0
 40
0
 40
0
 40
0
 40
1
 40
1
 40
1
 40
1
 10
96.143815
 20
126.895013
 30
0.0
 10
95.452144
 20
126.895013
 30
0.0
 10
94.891454
 20
127.455704
 30
0.0
 10
94.891454
 20
128.147374
 30
0.0
  0
SPLINE
  5
11d
100
AcDbEntity
  8
Layer_1
 62
7
100
AcDbSpline
 70
8
 71
3
 72
8
 73
4
 74
0
 40
0
 40
0
 40
0
 40
0
 40
1
 40
1
 40
1
 40
1
 10
94.891454
 20
128.147374
 30
0.0
 10
94.891454
 20
128.839045
 30
0.0
 10
95.452144
 20
129.399736
 30
0.0
 10
96.143815
 20
129.399736
 30
0.0
  0
SPLINE
  5
11e
100
AcDbEntity
  8
Layer_1
 62
7
100
AcDbSpline
 70
8
 71
3
 72
8
 73
4
 74
0
 40
0
 40
0
 40
0
 40
0
 40
1
 40
1
 40
1
 40
1
 10
96.143815
 20
129.399736
 30
0.0
 10
96.835457
 20
129.399736
 30
0.0
 10
97.396176
 20
128.839045
 30
0.0
 10
97.396176
 20
128.147374
 30
0.0
  0
LWPOLYLINE
  5
11f
100
AcDbEntity
  8
Layer_1
 62
7
100
AcDbPolyline
 90
18
 70
0
 10
132.140833
 20
212.144537
 30
0.0
 10
132.140833
 20
208.144542
 30
0.0
 10
144.141111
 20
208.144824
 30
0.0
 10
144.141111
 20
212.144822
 30
0.0
 10
164.141110
 20
212.144822
 30
0.0
 10
164.141110
 20
208.144824
 30
0.0
 10
176.141109
 20
208.144824
 30
0.0
 10
176.141109
 20
212.144822
 30
0.0
 10
196.141111
 20
212.144830
 30
0.0
 10
196.140829
 20
224.144499
 30
0.0
 10
200.140827
 20
224.144499
 30
0.0
 10
200.140832
 20
232.144528
 30
0.0
 10
196.140838
 20
232.144542
 30
0.0
 10
196.140555
 20
264.144788
 30
0.0
 10
200.140832
 20
264.144529
 30
0.0
 10
200.140827
 20
272.144526
 30
0.0
 10
196.140829
 20
272.144526
 30
0.0
 10
196.141111
 20
284.143650
 30
0.0
  0
SPLINE
  5
120
100
AcDbEntity
  8
Layer_1
 62
7
100
AcDbSpline
 70
8
 71
3
 72
8
 73
4
 74
0
 40
0
 40
0
 40
0
 40
0
 40
1
 40
1
 40
1
 40
1
 10
97.395978
 20
180.144824
 30
0.0
 10
97.395978
 20
179.449089
 30
0.0
 10
96.831985
 20
178.885096
 30
0.0
 10
96.136251
 20
178.885096
 30
0.0
  0
SPLINE
  5
121
100
AcDbEntity
  8
Layer_1
 62
7
100
AcDbSpline
 70
8
 71
3
 72
8
 73
4
 74
0
 40
0
 40
0
 40
0
 40
0
 40
1
 40
1
 40
1
 40
1
 10
96.136251
 20
178.885096
 30
0.0
 10
95.440517
 20
178.885096
 30
0.0
 10
94.876524
 20
179.449089
 30
0.0
 10
94.876524
 20
180.144824
 30
0.0
  0
SPLINE
  5
122
100
AcDbEntity
  8
Layer_1
 62
7
100
AcDbSpline
 70
8
 71
3
 72
8
 73
4
 74
0
 40
0
 40
0
 40
0
 40
0
 40
1
 40
1
 40
1
 40
1
 10
94.876524
 20
180.144824
 30
0.0
 10
94.876524
 20
180.840558
 30
0.0
 10
95.440517
 20
181.404551
 30
0.0
 10
96.136251
 20
181.404551
 30
0.0
  0
SPLINE
  5
123
100
AcDbEntity
  8
Layer_1
 62
7
100
AcDbSpline
 70
8
 71
3
 72
8
 73
4
 74
0
 40
0
 40
0
 40
0
 40
0
 40
1
 40
1
 40
1
 40
1
 10
96.136251
 20
181.404551
 30
0.0
 10
96.831985
 20
181.404551
 30
0.0
 10
97.395978
 20
180.840558
 30
0.0
 10
97.395978
 20
180.144824
 30
0.0
  0
LWPOLYLINE
  5
124
100
AcDbEntity
  8
Layer_1
 62
7
100
AcDbPolyline
 90
2
 70
0
 10
97.396176
 20
128.147374
 30
0.0
 10
97.396176
 20
128.147374
 30
0.0
  0
SPLINE
  5
125
100
AcDbEntity
  8
Layer_1
 62
7
100
AcDbSpline
 70
8
 71
3
 72
8
 73
4
 74
0
 40
0
 40
0
 40
0
 40
0
 40
1
 40
1
 40
1
 40
1
 10
14.641096
 20
180.416183
 30
0.0
 10
14.641096
 20
181.106527
 30
0.0
 10
15.200743
 20
181.666174
 30
0.0
 10
15.891087
 20
181.666174
 30
0.0
  0
SPLINE
  5
126
100
AcDbEntity
  8
Layer_1
 62
7
100
AcDbSpline
 70
8
 71
3
 72
8
 73
4
 74
0
 40
0
 40
0
 40
0
 40
0
 40
1
 40
1
 40
1
 40
1
 10
15.891087
 20
181.666174
 30
0.0
 10
16.581459
 20
181.666174
 30
0.0
 10
17.141105
 20
181.106527
 30
0.0
 10
17.141105
 20
180.416183
 30
0.0
  0
SPLINE
  5
127
100
AcDbEntity
  8
Layer_1
 62
7
100
AcDbSpline
 70
8
 71
3
 72
8
 73
4
 74
0
 40
0
 40
0
 40
0
 40
0
 40
1
 40
1
 40
1
 40
1
 10
17.141105
 20
180.416183
 30
0.0
 10
17.141105
 20
179.725811
 30
0.0
 10
16.581459
 20
179.166164
 30
0.0
 10
15.891087
 20
179.166164
 30
0.0
  0
SPLINE
  5
128
100
AcDbEntity
  8
Layer_1
 62
7
100
AcDbSpline
 70
8
 71
3
 72
8
 73
4
 74
0
 40
0
 40
0
 40
0
 40
0
 40
1
 40
1
 40
1
 40
1
 10
15.891087
 20
179.166164
 30
0.0
 10
15.200743
 20
179.166164
 30
0.0
 10
14.641096
 20
179.725811
 30
0.0
 10
14.641096
 20
180.416183
 30
0.0
  0
LWPOLYLINE
  5
129
100
AcDbEntity
  8
Layer_1
 62
7
100
AcDbPolyline
 90
2
 70
0
 10
97.395978
 20
180.144824
 30
0.0
 10
97.395978
 20
180.144824
 30
0.0
  0
LWPOLYLINE
  5
12a
100
AcDbEntity
  8
Layer_1
 62
7
100
AcDbPolyline
 90
2
 70
0
 10
14.641096
 20
180.416183
 30
0.0
 10
14.641096
 20
180.416183
 30
0.0
  0
LWPOLYLINE
  5
12b
100
AcDbEntity
  8
Layer_1
 62
7
100
AcDbPolyline
 90
2
 70
0
 10
20.141099
 20
132.166162
 30
0.0
 10
20.141099
 20
168.166186
 30
0.0
  0
LWPOLYLINE
  5
12c
100
AcDbEntity
  8
Layer_1
 62
7
100
AcDbPolyline
 90
2
 70
0
 10
24.141091
 20
140.166175
 30
0.0
 10
24.141091
 20
176.166199
 30
0.0
  0
LWPOLYLINE
  5
12d
100
AcDbEntity
  8
Layer_1
 62
7
100
AcDbPolyline
 90
2
 70
0
 10
28.141083
 20
132.166162
 30
0.0
 10
28.141083
 20
168.166186
 30
0.0
  0
LWPOLYLINE
  5
12e
100
AcDbEntity
  8
Layer_1
 62
7
100
AcDbPolyline
 90
2
 70
0
 10
32.141104
 20
140.166175
 30
0.0
 10
32.141104
 20
176.166199
 30
0.0
  0
LWPOLYLINE
  5
12f
100
AcDbEntity
  8
Layer_1
 62
7
100
AcDbPolyline
 90
2
 70
0
 10
36.141096
 20
168.166186
 30
0.0
 10
36.141096
 20
132.166162
 30
0.0
  0
LWPOLYLINE
  5
130
100
AcDbEntity
  8
Layer_1
 62
7
100
AcDbPolyline
 90
2
 70
0
 10
40.141088
 20
140.166175
 30
0.0
 10
40.141088
 20
176.166199
 30
0.0
  0
LWPOLYLINE
  5
131
100
AcDbEntity
  8
Layer_1
 62
7
100
AcDbPolyline
 90
2
 70
0
 10
44.141108
 20
132.166162
 30
0.0
 10
44.141108
 20
168.166186
 30
0.0
  0
LWPOLYLINE
  5
132
100
AcDbEntity
  8
Layer_1
 62
7
100
AcDbPolyline
 90
2
 70
0
 10
48.141100
 20
176.166199
 30
0.0
 10
48.141100
 20
140.166175
 30
0.0
  0
LWPOLYLINE
  5
133
100
AcDbEntity
  8
Layer_1
 62
7
100
AcDbPolyline
 90
2
 70
0
 10
52.141092
 20
132.166162
 30
0.0
 10
52.141092
 20
168.166186
 30
0.0
  0
LWPOLYLINE
  5
134
100
AcDbEntity
  8
Layer_1
 62
7
100
AcDbPolyline
 90
2
 70
0
 10
56.141084
 20
176.166199
 30
0.0
 10
56.141084
 20
140.166175
 30
0.0
  0
LWPOLYLINE
  5
135
100
AcDbEntity
  8
Layer_1
 62
7
100
AcDbPolyline
 90
2
 70
0
 10
60.141104
 20
132.166162
 30
0.0
 10
60.141104
 20
168.166186
 30
0.0
  0
LWPOLYLINE
  5
136
100
AcDbEntity
  8
Layer_1
 62
7
100
AcDbPolyline
 90
2
 70
0
 10
64.141096
 20
176.166199
 30
0.0
 10
64.141096
 20
140.166175
 30
0.0
  0
LWPOLYLINE
  5
137
100
AcDbEntity
  8
Layer_1
 62
7
100
AcDbPolyline
 90
2
 70
0
 10
68.141088
 20
132.166162
 30
0.0
 10
68.141088
 20
168.166186
 30
0.0
  0
LWPOLYLINE
  5
138
100
AcDbEntity
  8
Layer_1
 62
7
100
AcDbPolyline
 90
2
 70
0
 10
72.141108
 20
176.166199
 30
0.0
 10
72.141108
 20
140.166175
 30
0.0
  0
LWPOLYLINE
  5
139
100
AcDbEntity
  8
Layer_1
 62
7
100
AcDbPolyline
 90
2
 70
0
 10
76.141100
 20
132.166162
 30
0.0
 10
76.141100
 20
168.166186
 30
0.0
  0
LWPOLYLINE
  5
13a
100
AcDbEntity
  8
Layer_1
 62
7
100
AcDbPolyline
 90
2
 70
0
 10
80.141092
 20
176.166199
 30
0.0
 10
80.141092
 20
140.166175
 30
0.0
  0
LWPOLYLINE
  5
13b
100
AcDbEntity
  8
Layer_1
 62
7
100
AcDbPolyline
 90
2
 70
0
 10
84.141084
 20
132.166162
 30
0.0
 10
84.141084
 20
168.166186
 30
0.0
  0
LWPOLYLINE
  5
13c
100
AcDbEntity
  8
Layer_1
 62
7
100
AcDbPolyline
 90
2
 70
0
 10
88.141104
 20
176.166199
 30
0.0
 10
88.141104
 20
140.166175
 30
0.0
  0
LWPOLYLINE
  5
13d
100
AcDbEntity
  8
Layer_1
 62
7
100
AcDbPolyline
 90
2
 70
0
 10
92.141096
 20
132.166162
 30
0.0
 10
92.141096
 20
168.166186
 30
0.0
  0
LWPOLYLINE
  5
13e
100
AcDbEntity
  8
Layer_1
 62
7
100
AcDbPolyline
 90
2
 70
0
 10
96.141088
 20
176.166199
 30
0.0
 10
96.141086
 20
140.166175
 30
0.0
  0
LWPOLYLINE
  5
13f
100
AcDbEntity
  8
Layer_1
 62
7
100
AcDbPolyline
 90
2
 70
0
 10
100.141109
 20
132.166162
 30
0.0
 10
100.141109
 20
168.166186
 30
0.0
  0
LWPOLYLINE
  5
140
100
AcDbEntity
  8
Layer_1
 62
7
100
AcDbPolyline
 90
2
 70
0
 10
104.141101
 20
176.166199
 30
0.0
 10
104.141098
 20
140.166175
 30
0.0
  0
LWPOLYLINE
  5
141
100
AcDbEntity
  8
Layer_1
 62
7
100
AcDbPolyline
 90
2
 70
0
 10
108.141090
 20
132.166162
 30
0.0
 10
108.141093
 20
168.166186
 30
0.0
  0
LWPOLYLINE
  5
142
100
AcDbEntity
  8
Layer_1
 62
7
100
AcDbPolyline
 90
2
 70
0
 10
112.141082
 20
176.166199
 30
0.0
 10
112.141082
 20
140.166175
 30
0.0
  0
LWPOLYLINE
  5
143
100
AcDbEntity
  8
Layer_1
 62
7
100
AcDbPolyline
 90
2
 70
0
 10
116.141102
 20
132.166162
 30
0.0
 10
116.141105
 20
168.166186
 30
0.0
  0
LWPOLYLINE
  5
144
100
AcDbEntity
  8
Layer_1
 62
7
100
AcDbPolyline
 90
2
 70
0
 10
120.141094
 20
176.166199
 30
0.0
 10
120.141094
 20
140.166175
 30
0.0
  0
LWPOLYLINE
  5
145
100
AcDbEntity
  8
Layer_1
 62
7
100
AcDbPolyline
 90
2
 70
0
 10
124.141095
 20
132.166162
 30
0.0
 10
124.141095
 20
168.166186
 30
0.0
  0
LWPOLYLINE
  5
146
100
AcDbEntity
  8
Layer_1
 62
7
100
AcDbPolyline
 90
2
 70
0
 10
128.141092
 20
176.166199
 30
0.0
 10
128.141092
 20
140.166175
 30
0.0
  0
LWPOLYLINE
  5
147
100
AcDbEntity
  8
Layer_1
 62
7
100
AcDbPolyline
 90
2
 70
0
 10
132.141093
 20
132.166162
 30
0.0
 10
132.141093
 20
168.166186
 30
0.0
  0
LWPOLYLINE
  5
148
100
AcDbEntity
  8
Layer_1
 62
7
100
AcDbPolyline
 90
2
 70
0
 10
136.141113
 20
176.166199
 30
0.0
 10
136.141113
 20
140.166175
 30
0.0
  0
LWPOLYLINE
  5
149
100
AcDbEntity
  8
Layer_1
 62
7
100
AcDbPolyline
 90
2
 70
0
 10
140.141105
 20
132.166162
 30
0.0
 10
140.141105
 20
168.166186
 30
0.0
  0
LWPOLYLINE
  5
14a
100
AcDbEntity
  8
Layer_1
 62
7
100
AcDbPolyline
 90
2
 70
0
 10
144.141097
 20
176.166199
 30
0.0
 10
144.141097
 20
140.166175
 30
0.0
  0
LWPOLYLINE
  5
14b
100
AcDbEntity
  8
Layer_1
 62
7
100
AcDbPolyline
 90
2
 70
0
 10
148.141089
 20
132.166162
 30
0.0
 10
148.141089
 20
168.166186
 30
0.0
  0
LWPOLYLINE
  5
14c
100
AcDbEntity
  8
Layer_1
 62
7
100
AcDbPolyline
 90
2
 70
0
 10
152.141109
 20
176.166199
 30
0.0
 10
152.141109
 20
140.166175
 30
0.0
  0
LWPOLYLINE
  5
14d
100
AcDbEntity
  8
Layer_1
 62
7
100
AcDbPolyline
 90
2
 70
0
 10
156.141101
 20
132.166162
 30
0.0
 10
156.141101
 20
168.166186
 30
0.0
  0
LWPOLYLINE
  5
14e
100
AcDbEntity
  8
Layer_1
 62
7
100
AcDbPolyline
 90
2
 70
0
 10
160.141093
 20
140.166175
 30
0.0
 10
160.141093
 20
176.166199
 30
0.0
  0
LWPOLYLINE
  5
14f
100
AcDbEntity
  8
Layer_1
 62
7
100
AcDbPolyline
 90
2
 70
0
 10
164.141113
 20
132.166162
 30
0.0
 10
164.141113
 20
168.166186
 30
0.0
  0
LWPOLYLINE
  5
150
100
AcDbEntity
  8
Layer_1
 62
7
100
AcDbPolyline
 90
2
 70
0
 10
168.141105
 20
176.166199
 30
0.0
 10
168.141105
 20
140.166175
 30
0.0
  0
LWPOLYLINE
  5
151
100
AcDbEntity
  8
Layer_1
 62
7
100
AcDbPolyline
 90
2
 70
0
 10
172.141097
 20
132.166162
 30
0.0
 10
172.141097
 20
168.166186
 30
0.0
  0
LWPOLYLINE
  5
152
100
AcDbEntity
  8
Layer_1
 62
7
100
AcDbPolyline
 90
2
 70
0
 10
176.141089
 20
140.166175
 30
0.0
 10
176.141089
 20
176.166199
 30
0.0
  0
SPLINE
  5
153
100
AcDbEntity
  8
Layer_1
 62
7
100
AcDbSpline
 70
8
 71
3
 72
8
 73
4
 74
0
 40
0
 40
0
 40
0
 40
0
 40
1
 40
1
 40
1
 40
1
 10
183.141104
 20
180.416183
 30
0.0
 10
183.141104
 20
181.106527
 30
0.0
 10
183.700750
 20
181.666174
 30
0.0
 10
184.391094
 20
181.666174
 30
0.0
  0
SPLINE
  5
154
100
AcDbEntity
  8
Layer_1
 62
7
100
AcDbSpline
 70
8
 71
3
 72
8
 73
4
 74
0
 40
0
 40
0
 40
0
 40
0
 40
1
 40
1
 40
1
 40
1
 10
184.391094
 20
181.666174
 30
0.0
 10
185.081466
 20
181.666174
 30
0.0
 10
185.641113
 20
181.106527
 30
0.0
 10
185.641113
 20
180.416183
 30
0.0
  0
SPLINE
  5
155
100
AcDbEntity
  8
Layer_1
 62
7
100
AcDbSpline
 70
8
 71
3
 72
8
 73
4
 74
0
 40
0
 40
0
 40
0
 40
0
 40
1
 40
1
 40
1
 40
1
 10
185.641113
 20
180.416183
 30
0.0
 10
185.641113
 20
179.725811
 30
0.0
 10
185.081466
 20
179.166164
 30
0.0
 10
184.391094
 20
179.166164
 30
0.0
  0
SPLINE
  5
156
100
AcDbEntity
  8
Layer_1
 62
7
100
AcDbSpline
 70
8
 71
3
 72
8
 73
4
 74
0
 40
0
 40
0
 40
0
 40
0
 40
1
 40
1
 40
1
 40
1
 10
184.391094
 20
179.166164
 30
0.0
 10
183.700750
 20
179.166164
 30
0.0
 10
183.141104
 20
179.725811
 30
0.0
 10
183.141104
 20
180.416183
 30
0.0
  0
LWPOLYLINE
  5
157
100
AcDbEntity
  8
Layer_1
 62
7
100
AcDbPolyline
 90
3
 70
0
 10
180.141110
 20
168.166186
 30
0.0
 10
180.141110
 20
132.166162
 30
0.0
 10
180.141110
 20
168.166186
 30
0.0
  0
SPLINE
  5
158
100
AcDbEntity
  8
Layer_1
 62
7
100
AcDbSpline
 70
8
 71
3
 72
8
 73
4
 74
0
 40
0
 40
0
 40
0
 40
0
 40
1
 40
1
 40
1
 40
1
 10
183.141104
 20
127.916178
 30
0.0
 10
183.141104
 20
128.606522
 30
0.0
 10
183.700750
 20
129.166168
 30
0.0
 10
184.391094
 20
129.166168
 30
0.0
  0
SPLINE
  5
159
100
AcDbEntity
  8
Layer_1
 62
7
100
AcDbSpline
 70
8
 71
3
 72
8
 73
4
 74
0
 40
0
 40
0
 40
0
 40
0
 40
1
 40
1
 40
1
 40
1
 10
184.391094
 20
129.166168
 30
0.0
 10
185.081466
 20
129.166168
 30
0.0
 10
185.641113
 20
128.606522
 30
0.0
 10
185.641113
 20
127.916178
 30
0.0
  0
SPLINE
  5
15a
100
AcDbEntity
  8
Layer_1
 62
7
100
AcDbSpline
 70
8
 71
3
 72
8
 73
4
 74
0
 40
0
 40
0
 40
0
 40
0
 40
1
 40
1
 40
1
 40
1
 10
185.641113
 20
127.916178
 30
0.0
 10
185.641113
 20
127.225834
 30
0.0
 10
185.081466
 20
126.666188
 30
0.0
 10
184.391094
 20
126.666188
 30
0.0
  0
SPLINE
  5
15b
100
AcDbEntity
  8
Layer_1
 62
7
100
AcDbSpline
 70
8
 71
3
 72
8
 73
4
 74
0
 40
0
 40
0
 40
0
 40
0
 40
1
 40
1
 40
1
 40
1
 10
184.391094
 20
126.666188
 30
0.0
 10
183.700750
 20
126.666188
 30
0.0
 10
183.141104
 20
127.225834
 30
0.0
 10
183.141104
 20
127.916178
 30
0.0
  0
LWPOLYLINE
  5
15c
100
AcDbEntity
  8
Layer_1
 62
7
100
AcDbPolyline
 90
2
 70
0
 10
183.141104
 20
180.416183
 30
0.0
 10
183.141104
 20
180.416183
 30
0.0
  0
LWPOLYLINE
  5
15d
100
AcDbEntity
  8
Layer_1
 62
7
100
AcDbPolyline
 90
2
 70
0
 10
183.141104
 20
127.916178
 30
0.0
 10
183.141104
 20
127.916178
 30
0.0
  0
LWPOLYLINE
  5
15e
100
AcDbEntity
  8
Layer_1
 62
7
100
AcDbPolyline
 90
5
 70
0
 10
188.141094
 20
124.166178
 30
0.0
 10
12.141084
 20
124.166178
 30
0.0
 10
12.141084
 20
184.166174
 30
0.0
 10
188.141094
 20
184.166174
 30
0.0
 10
188.141094
 20
124.166178
 30
0.0
  0
LWPOLYLINE
  5
15f
100
AcDbEntity
  8
Layer_1
 62
7
100
AcDbPolyline
 90
5
 70
0
 10
192.141114
 20
112.166202
 30
0.0
 10
188.141094
 20
112.166202
 30
0.0
 10
188.141094
 20
108.166182
 30
0.0
 10
192.141114
 20
108.166182
 30
0.0
 10
192.141114
 20
112.166202
 30
0.0
  0
LWPOLYLINE
  5
160
100
AcDbEntity
  8
Layer_1
 62
7
100
AcDbPolyline
 90
5
 70
0
 10
12.141113
 20
108.166182
 30
0.0
 10
8.141121
 20
108.166182
 30
0.0
 10
8.141121
 20
112.166202
 30
0.0
 10
12.141113
 20
112.166202
 30
0.0
 10
12.141113
 20
108.166182
 30
0.0
  0
SPLINE
  5
161
100
AcDbEntity
  8
Layer_1
 62
7
100
AcDbSpline
 70
8
 71
3
 72
8
 73
4
 74
0
 40
0
 40
0
 40
0
 40
0
 40
1
 40
1
 40
1
 40
1
 10
200.141098
 20
176.166255
 30
0.0
 10
200.141098
 20
181.551422
 30
0.0
 10
200.141098
 20
192.321634
 30
0.0
 10
200.141098
 20
192.321634
 30
0.0
  0
LWPOLYLINE
  5
162
100
AcDbEntity
  8
Layer_1
 62
7
100
AcDbPolyline
 90
7
 70
0
 10
196.141106
 20
104.166190
 30
0.0
 10
196.141106
 20
116.166166
 30
0.0
 10
200.141098
 20
116.166166
 30
0.0
 10
200.141098
 20
132.166162
 30
0.0
 10
196.141106
 20
132.166162
 30
0.0
 10
196.141106
 20
176.166255
 30
0.0
 10
200.141098
 20
176.166255
 30
0.0
  0
SPLINE
  5
163
100
AcDbEntity
  8
Layer_1
 62
7
100
AcDbSpline
 70
8
 71
3
 72
8
 73
4
 74
0
 40
0
 40
0
 40
0
 40
0
 40
1
 40
1
 40
1
 40
1
 10
0.141108
 20
192.144822
 30
0.0
 10
0.141108
 20
192.144822
 30
0.0
 10
0.141137
 20
181.492438
 30
0.0
 10
0.141137
 20
176.166227
 30
0.0
  0
LWPOLYLINE
  5
164
100
AcDbEntity
  8
Layer_1
 62
7
100
AcDbPolyline
 90
6
 70
0
 10
200.141098
 20
192.321634
 30
0.0
 10
196.141106
 20
192.166271
 30
0.0
 10
196.141106
 20
204.166275
 30
0.0
 10
4.141100
 20
204.166275
 30
0.0
 10
4.141072
 20
192.166271
 30
0.0
 10
0.141108
 20
192.144822
 30
0.0
  0
LWPOLYLINE
  5
165
100
AcDbEntity
  8
Layer_1
 62
7
100
AcDbPolyline
 90
8
 70
0
 10
0.141137
 20
176.166227
 30
0.0
 10
4.141157
 20
176.166227
 30
0.0
 10
4.141100
 20
132.166162
 30
0.0
 10
0.141108
 20
132.166162
 30
0.0
 10
0.141108
 20
116.166194
 30
0.0
 10
4.141100
 20
116.166194
 30
0.0
 10
4.141100
 20
104.166190
 30
0.0
 10
196.141106
 20
104.166190
 30
0.0
  0
LWPOLYLINE
  5
166
100
AcDbEntity
  8
Layer_1
 62
7
100
AcDbPolyline
 90
5
 70
0
 10
176.141118
 20
196.166263
 30
0.0
 10
176.141118
 20
192.166243
 30
0.0
 10
164.141113
 20
192.166243
 30
0.0
 10
164.141113
 20
196.166263
 30
0.0
 10
176.141118
 20
196.166263
 30
0.0
  0
LWPOLYLINE
  5
167
100
AcDbEntity
  8
Layer_1
 62
7
100
AcDbPolyline
 90
5
 70
0
 10
144.141125
 20
192.166243
 30
0.0
 10
144.141125
 20
196.166263
 30
0.0
 10
132.141093
 20
196.166178
 30
0.0
 10
132.141093
 20
192.166158
 30
0.0
 10
144.141125
 20
192.166243
 30
0.0
  0
LWPOLYLINE
  5
168
100
AcDbEntity
  8
Layer_1
 62
7
100
AcDbPolyline
 90
5
 70
0
 10
68.141113
 20
192.166158
 30
0.0
 10
68.141113
 20
196.166178
 30
0.0
 10
56.141109
 20
196.166263
 30
0.0
 10
56.141109
 20
192.166243
 30
0.0
 10
68.141113
 20
192.166158
 30
0.0
  0
LWPOLYLINE
  5
169
100
AcDbEntity
  8
Layer_1
 62
7
100
AcDbPolyline
 90
5
 70
0
 10
36.141121
 20
192.166243
 30
0.0
 10
24.141117
 20
192.166243
 30
0.0
 10
24.141117
 20
196.166263
 30
0.0
 10
36.141121
 20
196.166263
 30
0.0
 10
36.141121
 20
192.166243
 30
0.0
  0
LWPOLYLINE
  5
16a
100
AcDbEntity
  8
Layer_1
 62
7
100
AcDbPolyline
 90
5
 70
0
 10
176.141118
 20
112.166174
 30
0.0
 10
164.141113
 20
112.166174
 30
0.0
 10
164.141113
 20
116.166166
 30
0.0
 10
176.141118
 20
116.166166
 30
0.0
 10
176.141118
 20
112.166174
 30
0.0
  0
LWPOLYLINE
  5
16b
100
AcDbEntity
  8
Layer_1
 62
7
100
AcDbPolyline
 90
5
 70
0
 10
144.141097
 20
116.166166
 30
0.0
 10
144.141097
 20
112.166174
 30
0.0
 10
132.141093
 20
112.166174
 30
0.0
 10
132.141093
 20
116.166166
 30
0.0
 10
144.141097
 20
116.166166
 30
0.0
  0
LWPOLYLINE
  5
16c
100
AcDbEntity
  8
Layer_1
 62
7
100
AcDbPolyline
 90
5
 70
0
 10
68.141113
 20
112.166174
 30
0.0
 10
68.141113
 20
116.166166
 30
0.0
 10
56.141109
 20
116.166166
 30
0.0
 10
56.141109
 20
112.166174
 30
0.0
 10
68.141113
 20
112.166174
 30
0.0
  0
LWPOLYLINE
  5
16d
100
AcDbEntity
  8
Layer_1
 62
7
100
AcDbPolyline
 90
5
 70
0
 10
36.141093
 20
112.166174
 30
0.0
 10
24.141117
 20
112.166174
 30
0.0
 10
24.141117
 20
116.166166
 30
0.0
 10
36.141093
 20
116.166166
 30
0.0
 10
36.141093
 20
112.166174
 30
0.0
  0
LWPOLYLINE
  5
16e
100
AcDbEntity
  8
Layer_1
 62
7
100
AcDbPolyline
 90
5
 70
0
 10
192.141086
 20
196.166207
 30
0.0
 10
188.141094
 20
196.166207
 30
0.0
 10
188.141094
 20
200.166199
 30
0.0
 10
192.141086
 20
200.166199
 30
0.0
 10
192.141086
 20
196.166207
 30
0.0
  0
SPLINE
  5
16f
100
AcDbEntity
  8
Layer_1
 62
7
100
AcDbSpline
 70
8
 71
3
 72
8
 73
4
 74
0
 40
0
 40
0
 40
0
 40
0
 40
1
 40
1
 40
1
 40
1
 10
14.641093
 20
127.916178
 30
0.0
 10
14.641093
 20
128.606522
 30
0.0
 10
15.200740
 20
129.166168
 30
0.0
 10
15.891084
 20
129.166168
 30
0.0
  0
SPLINE
  5
170
100
AcDbEntity
  8
Layer_1
 62
7
100
AcDbSpline
 70
8
 71
3
 72
8
 73
4
 74
0
 40
0
 40
0
 40
0
 40
0
 40
1
 40
1
 40
1
 40
1
 10
15.891084
 20
129.166168
 30
0.0
 10
16.581456
 20
129.166168
 30
0.0
 10
17.141103
 20
128.606522
 30
0.0
 10
17.141103
 20
127.916178
 30
0.0
  0
SPLINE
  5
171
100
AcDbEntity
  8
Layer_1
 62
7
100
AcDbSpline
 70
8
 71
3
 72
8
 73
4
 74
0
 40
0
 40
0
 40
0
 40
0
 40
1
 40
1
 40
1
 40
1
 10
17.141103
 20
127.916178
 30
0.0
 10
17.141103
 20
127.225834
 30
0.0
 10
16.581456
 20
126.666188
 30
0.0
 10
15.891084
 20
126.666188
 30
0.0
  0
SPLINE
  5
172
100
AcDbEntity
  8
Layer_1
 62
7
100
AcDbSpline
 70
8
 71
3
 72
8
 73
4
 74
0
 40
0
 40
0
 40
0
 40
0
 40
1
 40
1
 40
1
 40
1
 10
15.891084
 20
126.666188
 30
0.0
 10
15.200740
 20
126.666188
 30
0.0
 10
14.641093
 20
127.225834
 30
0.0
 10
14.641093
 20
127.916178
 30
0.0
  0
LWPOLYLINE
  5
173
100
AcDbEntity
  8
Layer_1
 62
7
100
AcDbPolyline
 90
5
 70
0
 10
12.141113
 20
196.166207
 30
0.0
 10
8.141121
 20
196.166207
 30
0.0
 10
8.141121
 20
200.166199
 30
0.0
 10
12.141113
 20
200.166199
 30
0.0
 10
12.141113
 20
196.166207
 30
0.0
  0
SPLINE
  5
174
100
AcDbEntity
  8
Layer_1
 62
7
100
AcDbSpline
 70
8
 71
3
 72
8
 73
4
 74
0
 40
0
 40
0
 40
0
 40
0
 40
1
 40
1
 40
1
 40
1
 10
105.893658
 20
384.139570
 30
0.0
 10
105.893658
 20
383.168302
 30
0.0
 10
105.106287
 20
382.380930
 30
0.0
 10
104.135019
 20
382.380930
 30
0.0
  0
SPLINE
  5
175
100
AcDbEntity
  8
Layer_1
 62
7
100
AcDbSpline
 70
8
 71
3
 72
8
 73
4
 74
0
 40
0
 40
0
 40
0
 40
0
 40
1
 40
1
 40
1
 40
1
 10
104.135019
 20
382.380930
 30
0.0
 10
103.163751
 20
382.380930
 30
0.0
 10
102.376379
 20
383.168302
 30
0.0
 10
102.376379
 20
384.139570
 30
0.0
  0
SPLINE
  5
176
100
AcDbEntity
  8
Layer_1
 62
7
100
AcDbSpline
 70
8
 71
3
 72
8
 73
4
 74
0
 40
0
 40
0
 40
0
 40
0
 40
1
 40
1
 40
1
 40
1
 10
102.376379
 20
384.139570
 30
0.0
 10
102.376379
 20
385.110838
 30
0.0
 10
103.163751
 20
385.898209
 30
0.0
 10
104.135019
 20
385.898209
 30
0.0
  0
SPLINE
  5
177
100
AcDbEntity
  8
Layer_1
 62
7
100
AcDbSpline
 70
8
 71
3
 72
8
 73
4
 74
0
 40
0
 40
0
 40
0
 40
0
 40
1
 40
1
 40
1
 40
1
 10
104.135019
 20
385.898209
 30
0.0
 10
105.106287
 20
385.898209
 30
0.0
 10
105.893658
 20
385.110838
 30
0.0
 10
105.893658
 20
384.139570
 30
0.0
  0
LWPOLYLINE
  5
178
100
AcDbEntity
  8
Layer_1
 62
7
100
AcDbPolyline
 90
2
 70
0
 10
14.641093
 20
127.916178
 30
0.0
 10
14.641093
 20
127.916178
 30
0.0
  0
SPLINE
  5
179
100
AcDbEntity
  8
Layer_1
 62
7
100
AcDbSpline
 70
8
 71
3
 72
8
 73
4
 74
0
 40
0
 40
0
 40
0
 40
0
 40
1
 40
1
 40
1
 40
1
 10
17.641107
 20
384.394840
 30
0.0
 10
17.641107
 20
383.428342
 30
0.0
 10
16.857605
 20
382.644836
 30
0.0
 10
15.891106
 20
382.644836
 30
0.0
  0
SPLINE
  5
17a
100
AcDbEntity
  8
Layer_1
 62
7
100
AcDbSpline
 70
8
 71
3
 72
8
 73
4
 74
0
 40
0
 40
0
 40
0
 40
0
 40
1
 40
1
 40
1
 40
1
 10
15.891106
 20
382.644836
 30
0.0
 10
14.924608
 20
382.644836
 30
0.0
 10
14.141109
 20
383.428342
 30
0.0
 10
14.141109
 20
384.394840
 30
0.0
  0
SPLINE
  5
17b
100
AcDbEntity
  8
Layer_1
 62
7
100
AcDbSpline
 70
8
 71
3
 72
8
 73
4
 74
0
 40
0
 40
0
 40
0
 40
0
 40
1
 40
1
 40
1
 40
1
 10
14.141109
 20
384.394840
 30
0.0
 10
14.141109
 20
385.361338
 30
0.0
 10
14.924608
 20
386.144815
 30
0.0
 10
15.891106
 20
386.144815
 30
0.0
  0
SPLINE
  5
17c
100
AcDbEntity
  8
Layer_1
 62
7
100
AcDbSpline
 70
8
 71
3
 72
8
 73
4
 74
0
 40
0
 40
0
 40
0
 40
0
 40
1
 40
1
 40
1
 40
1
 10
15.891106
 20
386.144815
 30
0.0
 10
16.857605
 20
386.144815
 30
0.0
 10
17.641107
 20
385.361338
 30
0.0
 10
17.641107
 20
384.394840
 30
0.0
  0
LWPOLYLINE
  5
17d
100
AcDbEntity
  8
Layer_1
 62
7
100
AcDbPolyline
 90
2
 70
0
 10
105.893658
 20
384.139570
 30
0.0
 10
105.893658
 20
384.139570
 30
0.0
  0
SPLINE
  5
17e
100
AcDbEntity
  8
Layer_1
 62
7
100
AcDbSpline
 70
8
 71
3
 72
8
 73
4
 74
0
 40
0
 40
0
 40
0
 40
0
 40
1
 40
1
 40
1
 40
1
 10
186.141120
 20
384.394840
 30
0.0
 10
186.141120
 20
383.428342
 30
0.0
 10
185.357615
 20
382.644836
 30
0.0
 10
184.391117
 20
382.644836
 30
0.0
  0
SPLINE
  5
17f
100
AcDbEntity
  8
Layer_1
 62
7
100
AcDbSpline
 70
8
 71
3
 72
8
 73
4
 74
0
 40
0
 40
0
 40
0
 40
0
 40
1
 40
1
 40
1
 40
1
 10
184.391117
 20
382.644836
 30
0.0
 10
183.424618
 20
382.644836
 30
0.0
 10
182.641113
 20
383.428342
 30
0.0
 10
182.641113
 20
384.394840
 30
0.0
  0
SPLINE
  5
180
100
AcDbEntity
  8
Layer_1
 62
7
100
AcDbSpline
 70
8
 71
3
 72
8
 73
4
 74
0
 40
0
 40
0
 40
0
 40
0
 40
1
 40
1
 40
1
 40
1
 10
182.641113
 20
384.394840
 30
0.0
 10
182.641113
 20
385.361338
 30
0.0
 10
183.424618
 20
386.144815
 30
0.0
 10
184.391117
 20
386.144815
 30
0.0
  0
SPLINE
  5
181
100
AcDbEntity
  8
Layer_1
 62
7
100
AcDbSpline
 70
8
 71
3
 72
8
 73
4
 74
0
 40
0
 40
0
 40
0
 40
0
 40
1
 40
1
 40
1
 40
1
 10
184.391117
 20
386.144815
 30
0.0
 10
185.357615
 20
386.144815
 30
0.0
 10
186.141120
 20
385.361338
 30
0.0
 10
186.141120
 20
384.394840
 30
0.0
  0
LWPOLYLINE
  5
182
100
AcDbEntity
  8
Layer_1
 62
7
100
AcDbPolyline
 90
2
 70
0
 10
17.641107
 20
384.394840
 30
0.0
 10
17.641107
 20
384.394840
 30
0.0
  0
LWPOLYLINE
  5
183
100
AcDbEntity
  8
Layer_1
 62
7
100
AcDbPolyline
 90
2
 70
0
 10
186.141120
 20
384.394840
 30
0.0
 10
186.141120
 20
384.394840
 30
0.0
  0
SPLINE
  5
184
100
AcDbEntity
  8
Layer_1
 62
7
100
AcDbSpline
 70
8
 71
3
 72
8
 73
4
 74
0
 40
0
 40
0
 40
0
 40
0
 40
1
 40
1
 40
1
 40
1
 10
212.142471
 20
309.392226
 30
0.0
 10
212.831291
 20
309.392226
 30
0.0
 10
213.389724
 20
308.833821
 30
0.0
 10
213.389724
 20
308.144973
 30
0.0
  0
SPLINE
  5
185
100
AcDbEntity
  8
Layer_1
 62
7
100
AcDbSpline
 70
8
 71
3
 72
8
 73
4
 74
0
 40
0
 40
0
 40
0
 40
0
 40
1
 40
1
 40
1
 40
1
 10
213.389724
 20
308.144973
 30
0.0
 10
213.389724
 20
307.456125
 30
0.0
 10
212.831291
 20
306.897720
 30
0.0
 10
212.142471
 20
306.897720
 30
0.0
  0
SPLINE
  5
186
100
AcDbEntity
  8
Layer_1
 62
7
100
AcDbSpline
 70
8
 71
3
 72
8
 73
4
 74
0
 40
0
 40
0
 40
0
 40
0
 40
1
 40
1
 40
1
 40
1
 10
212.142471
 20
306.897720
 30
0.0
 10
211.453623
 20
306.897720
 30
0.0
 10
210.895190
 20
307.456125
 30
0.0
 10
210.895190
 20
308.144973
 30
0.0
  0
SPLINE
  5
187
100
AcDbEntity
  8
Layer_1
 62
7
100
AcDbSpline
 70
8
 71
3
 72
8
 73
4
 74
0
 40
0
 40
0
 40
0
 40
0
 40
1
 40
1
 40
1
 40
1
 10
210.895190
 20
308.144973
 30
0.0
 10
210.895190
 20
308.833821
 30
0.0
 10
211.453623
 20
309.392226
 30
0.0
 10
212.142471
 20
309.392226
 30
0.0
  0
LWPOLYLINE
  5
188
100
AcDbEntity
  8
Layer_1
 62
7
100
AcDbPolyline
 90
5
 70
0
 10
0.141108
 20
380.144827
 30
0.0
 10
0.141108
 20
396.144823
 30
0.0
 10
200.141120
 20
396.144823
 30
0.0
 10
200.141120
 20
380.144827
 30
0.0
 10
0.141108
 20
380.144827
 30
0.0
  0
SPLINE
  5
189
100
AcDbEntity
  8
Layer_1
 62
7
100
AcDbSpline
 70
8
 71
3
 72
8
 73
4
 74
0
 40
0
 40
0
 40
0
 40
0
 40
1
 40
1
 40
1
 40
1
 10
211.891095
 20
221.644822
 30
0.0
 10
212.857594
 20
221.644822
 30
0.0
 10
213.641099
 20
220.861320
 30
0.0
 10
213.641099
 20
219.894822
 30
0.0
  0
SPLINE
  5
18a
100
AcDbEntity
  8
Layer_1
 62
7
100
AcDbSpline
 70
8
 71
3
 72
8
 73
4
 74
0
 40
0
 40
0
 40
0
 40
0
 40
1
 40
1
 40
1
 40
1
 10
213.641099
 20
219.894822
 30
0.0
 10
213.641099
 20
218.928323
 30
0.0
 10
212.857594
 20
218.144824
 30
0.0
 10
211.891095
 20
218.144824
 30
0.0
  0
SPLINE
  5
18b
100
AcDbEntity
  8
Layer_1
 62
7
100
AcDbSpline
 70
8
 71
3
 72
8
 73
4
 74
0
 40
0
 40
0
 40
0
 40
0
 40
1
 40
1
 40
1
 40
1
 10
211.891095
 20
218.144824
 30
0.0
 10
210.924597
 20
218.144824
 30
0.0
 10
210.141120
 20
218.928323
 30
0.0
 10
210.141120
 20
219.894822
 30
0.0
  0
SPLINE
  5
18c
100
AcDbEntity
  8
Layer_1
 62
7
100
AcDbSpline
 70
8
 71
3
 72
8
 73
4
 74
0
 40
0
 40
0
 40
0
 40
0
 40
1
 40
1
 40
1
 40
1
 10
210.141120
 20
219.894822
 30
0.0
 10
210.141120
 20
220.861320
 30
0.0
 10
210.924597
 20
221.644822
 30
0.0
 10
211.891095
 20
221.644822
 30
0.0
  0
LWPOLYLINE
  5
18d
100
AcDbEntity
  8
Layer_1
 62
7
100
AcDbPolyline
 90
2
 70
0
 10
212.142471
 20
309.392226
 30
0.0
 10
212.142471
 20
309.392226
 30
0.0
  0
SPLINE
  5
18e
100
AcDbEntity
  8
Layer_1
 62
7
100
AcDbSpline
 70
8
 71
3
 72
8
 73
4
 74
0
 40
0
 40
0
 40
0
 40
0
 40
1
 40
1
 40
1
 40
1
 10
211.891095
 20
390.144835
 30
0.0
 10
212.857594
 20
390.144835
 30
0.0
 10
213.641099
 20
389.361330
 30
0.0
 10
213.641099
 20
388.394832
 30
0.0
  0
SPLINE
  5
18f
100
AcDbEntity
  8
Layer_1
 62
7
100
AcDbSpline
 70
8
 71
3
 72
8
 73
4
 74
0
 40
0
 40
0
 40
0
 40
0
 40
1
 40
1
 40
1
 40
1
 10
213.641099
 20
388.394832
 30
0.0
 10
213.641099
 20
387.428334
 30
0.0
 10
212.857594
 20
386.644828
 30
0.0
 10
211.891095
 20
386.644828
 30
0.0
  0
SPLINE
  5
190
100
AcDbEntity
  8
Layer_1
 62
7
100
AcDbSpline
 70
8
 71
3
 72
8
 73
4
 74
0
 40
0
 40
0
 40
0
 40
0
 40
1
 40
1
 40
1
 40
1
 10
211.891095
 20
386.644828
 30
0.0
 10
210.924597
 20
386.644828
 30
0.0
 10
210.141120
 20
387.428334
 30
0.0
 10
210.141120
 20
388.394832
 30
0.0
  0
SPLINE
  5
191
100
AcDbEntity
  8
Layer_1
 62
7
100
AcDbSpline
 70
8
 71
3
 72
8
 73
4
 74
0
 40
0
 40
0
 40
0
 40
0
 40
1
 40
1
 40
1
 40
1
 10
210.141120
 20
388.394832
 30
0.0
 10
210.141120
 20
389.361330
 30
0.0
 10
210.924597
 20
390.144835
 30
0.0
 10
211.891095
 20
390.144835
 30
0.0
  0
LWPOLYLINE
  5
192
100
AcDbEntity
  8
Layer_1
 62
7
100
AcDbPolyline
 90
2
 70
0
 10
211.891095
 20
221.644822
 30
0.0
 10
211.891095
 20
221.644822
 30
0.0
  0
LWPOLYLINE
  5
193
100
AcDbEntity
  8
Layer_1
 62
7
100
AcDbPolyline
 90
2
 70
0
 10
211.891095
 20
390.144835
 30
0.0
 10
211.891095
 20
390.144835
 30
0.0
  0
SPLINE
  5
194
100
AcDbEntity
  8
Layer_1
 62
7
100
AcDbSpline
 70
8
 71
3
 72
8
 73
4
 74
0
 40
0
 40
0
 40
0
 40
0
 40
1
 40
1
 40
1
 40
1
 10
228.141098
 20
381.794825
 30
0.0
 10
229.052371
 20
381.794825
 30
0.0
 10
229.791102
 20
381.056094
 30
0.0
 10
229.791102
 20
380.144824
 30
0.0
  0
SPLINE
  5
195
100
AcDbEntity
  8
Layer_1
 62
7
100
AcDbSpline
 70
8
 71
3
 72
8
 73
4
 74
0
 40
0
 40
0
 40
0
 40
0
 40
1
 40
1
 40
1
 40
1
 10
229.791102
 20
380.144824
 30
0.0
 10
229.791102
 20
379.233554
 30
0.0
 10
229.052371
 20
378.494823
 30
0.0
 10
228.141098
 20
378.494823
 30
0.0
  0
SPLINE
  5
196
100
AcDbEntity
  8
Layer_1
 62
7
100
AcDbSpline
 70
8
 71
3
 72
8
 73
4
 74
0
 40
0
 40
0
 40
0
 40
0
 40
1
 40
1
 40
1
 40
1
 10
228.141098
 20
378.494823
 30
0.0
 10
227.229828
 20
378.494823
 30
0.0
 10
226.491097
 20
379.233554
 30
0.0
 10
226.491097
 20
380.144824
 30
0.0
  0
SPLINE
  5
197
100
AcDbEntity
  8
Layer_1
 62
7
100
AcDbSpline
 70
8
 71
3
 72
8
 73
4
 74
0
 40
0
 40
0
 40
0
 40
0
 40
1
 40
1
 40
1
 40
1
 10
226.491097
 20
380.144824
 30
0.0
 10
226.491097
 20
381.056094
 30
0.0
 10
227.229828
 20
381.794825
 30
0.0
 10
228.141098
 20
381.794825
 30
0.0
  0
LWPOLYLINE
  5
198
100
AcDbEntity
  8
Layer_1
 62
7
100
AcDbPolyline
 90
5
 70
0
 10
216.141108
 20
212.144822
 30
0.0
 10
204.141104
 20
212.144822
 30
0.0
 10
204.141104
 20
396.144823
 30
0.0
 10
216.141108
 20
396.144823
 30
0.0
 10
216.141108
 20
212.144822
 30
0.0
  0
SPLINE
  5
199
100
AcDbEntity
  8
Layer_1
 62
7
100
AcDbSpline
 70
8
 71
3
 72
8
 73
4
 74
0
 40
0
 40
0
 40
0
 40
0
 40
1
 40
1
 40
1
 40
1
 10
228.141098
 20
384.544821
 30
0.0
 10
230.571153
 20
384.544821
 30
0.0
 10
232.541098
 20
382.574876
 30
0.0
 10
232.541098
 20
380.144824
 30
0.0
  0
SPLINE
  5
19a
100
AcDbEntity
  8
Layer_1
 62
7
100
AcDbSpline
 70
8
 71
3
 72
8
 73
4
 74
0
 40
0
 40
0
 40
0
 40
0
 40
1
 40
1
 40
1
 40
1
 10
232.541098
 20
380.144824
 30
0.0
 10
232.541098
 20
377.714770
 30
0.0
 10
230.571153
 20
375.744825
 30
0.0
 10
228.141098
 20
375.744825
 30
0.0
  0
SPLINE
  5
19b
100
AcDbEntity
  8
Layer_1
 62
7
100
AcDbSpline
 70
8
 71
3
 72
8
 73
4
 74
0
 40
0
 40
0
 40
0
 40
0
 40
1
 40
1
 40
1
 40
1
 10
228.141098
 20
375.744825
 30
0.0
 10
225.711046
 20
375.744825
 30
0.0
 10
223.741101
 20
377.714770
 30
0.0
 10
223.741101
 20
380.144824
 30
0.0
  0
SPLINE
  5
19c
100
AcDbEntity
  8
Layer_1
 62
7
100
AcDbSpline
 70
8
 71
3
 72
8
 73
4
 74
0
 40
0
 40
0
 40
0
 40
0
 40
1
 40
1
 40
1
 40
1
 10
223.741101
 20
380.144824
 30
0.0
 10
223.741101
 20
382.574876
 30
0.0
 10
225.711046
 20
384.544821
 30
0.0
 10
228.141098
 20
384.544821
 30
0.0
  0
LWPOLYLINE
  5
19d
100
AcDbEntity
  8
Layer_1
 62
7
100
AcDbPolyline
 90
2
 70
0
 10
228.141098
 20
381.794825
 30
0.0
 10
228.141098
 20
381.794825
 30
0.0
  0
SPLINE
  5
19e
100
AcDbEntity
  8
Layer_1
 62
7
100
AcDbSpline
 70
8
 71
3
 72
8
 73
4
 74
0
 40
0
 40
0
 40
0
 40
0
 40
1
 40
1
 40
1
 40
1
 10
232.141099
 20
369.644823
 30
0.0
 10
232.969528
 20
369.644823
 30
0.0
 10
233.641101
 20
368.973250
 30
0.0
 10
233.641101
 20
368.144823
 30
0.0
  0
SPLINE
  5
19f
100
AcDbEntity
  8
Layer_1
 62
7
100
AcDbSpline
 70
8
 71
3
 72
8
 73
4
 74
0
 40
0
 40
0
 40
0
 40
0
 40
1
 40
1
 40
1
 40
1
 10
233.641101
 20
368.144823
 30
0.0
 10
233.641101
 20
367.316396
 30
0.0
 10
232.969528
 20
366.644823
 30
0.0
 10
232.141099
 20
366.644823
 30
0.0
  0
SPLINE
  5
1a0
100
AcDbEntity
  8
Layer_1
 62
7
100
AcDbSpline
 70
8
 71
3
 72
8
 73
4
 74
0
 40
0
 40
0
 40
0
 40
0
 40
1
 40
1
 40
1
 40
1
 10
232.141099
 20
366.644823
 30
0.0
 10
231.312672
 20
366.644823
 30
0.0
 10
230.641099
 20
367.316396
 30
0.0
 10
230.641099
 20
368.144823
 30
0.0
  0
SPLINE
  5
1a1
100
AcDbEntity
  8
Layer_1
 62
7
100
AcDbSpline
 70
8
 71
3
 72
8
 73
4
 74
0
 40
0
 40
0
 40
0
 40
0
 40
1
 40
1
 40
1
 40
1
 10
230.641099
 20
368.144823
 30
0.0
 10
230.641099
 20
368.973250
 30
0.0
 10
231.312672
 20
369.644823
 30
0.0
 10
232.141099
 20
369.644823
 30
0.0
  0
LWPOLYLINE
  5
1a2
100
AcDbEntity
  8
Layer_1
 62
7
100
AcDbPolyline
 90
2
 70
0
 10
228.141098
 20
384.544821
 30
0.0
 10
228.141098
 20
384.544821
 30
0.0
  0
SPLINE
  5
1a3
100
AcDbEntity
  8
Layer_1
 62
7
100
AcDbSpline
 70
8
 71
3
 72
8
 73
4
 74
0
 40
0
 40
0
 40
0
 40
0
 40
1
 40
1
 40
1
 40
1
 10
232.141099
 20
372.144821
 30
0.0
 10
234.350238
 20
372.144821
 30
0.0
 10
236.141099
 20
370.353960
 30
0.0
 10
236.141099
 20
368.144823
 30
0.0
  0
SPLINE
  5
1a4
100
AcDbEntity
  8
Layer_1
 62
7
100
AcDbSpline
 70
8
 71
3
 72
8
 73
4
 74
0
 40
0
 40
0
 40
0
 40
0
 40
1
 40
1
 40
1
 40
1
 10
236.141099
 20
368.144823
 30
0.0
 10
236.141099
 20
365.935683
 30
0.0
 10
234.350238
 20
364.144822
 30
0.0
 10
232.141099
 20
364.144822
 30
0.0
  0
SPLINE
  5
1a5
100
AcDbEntity
  8
Layer_1
 62
7
100
AcDbSpline
 70
8
 71
3
 72
8
 73
4
 74
0
 40
0
 40
0
 40
0
 40
0
 40
1
 40
1
 40
1
 40
1
 10
232.141099
 20
364.144822
 30
0.0
 10
229.931962
 20
364.144822
 30
0.0
 10
228.141101
 20
365.935683
 30
0.0
 10
228.141101
 20
368.144823
 30
0.0
  0
SPLINE
  5
1a6
100
AcDbEntity
  8
Layer_1
 62
7
100
AcDbSpline
 70
8
 71
3
 72
8
 73
4
 74
0
 40
0
 40
0
 40
0
 40
0
 40
1
 40
1
 40
1
 40
1
 10
228.141101
 20
368.144823
 30
0.0
 10
228.141101
 20
370.353960
 30
0.0
 10
229.931962
 20
372.144821
 30
0.0
 10
232.141099
 20
372.144821
 30
0.0
  0
LWPOLYLINE
  5
1a7
100
AcDbEntity
  8
Layer_1
 62
7
100
AcDbPolyline
 90
2
 70
0
 10
232.141099
 20
369.644823
 30
0.0
 10
232.141099
 20
369.644823
 30
0.0
  0
SPLINE
  5
1a8
100
AcDbEntity
  8
Layer_1
 62
7
100
AcDbSpline
 70
8
 71
3
 72
8
 73
4
 74
0
 40
0
 40
0
 40
0
 40
0
 40
1
 40
1
 40
1
 40
1
 10
228.141098
 20
361.644822
 30
0.0
 10
228.969528
 20
361.644822
 30
0.0
 10
229.641101
 20
360.973249
 30
0.0
 10
229.641101
 20
360.144822
 30
0.0
  0
SPLINE
  5
1a9
100
AcDbEntity
  8
Layer_1
 62
7
100
AcDbSpline
 70
8
 71
3
 72
8
 73
4
 74
0
 40
0
 40
0
 40
0
 40
0
 40
1
 40
1
 40
1
 40
1
 10
229.641101
 20
360.144822
 30
0.0
 10
229.641101
 20
359.316395
 30
0.0
 10
228.969528
 20
358.644822
 30
0.0
 10
228.141098
 20
358.644822
 30
0.0
  0
SPLINE
  5
1aa
100
AcDbEntity
  8
Layer_1
 62
7
100
AcDbSpline
 70
8
 71
3
 72
8
 73
4
 74
0
 40
0
 40
0
 40
0
 40
0
 40
1
 40
1
 40
1
 40
1
 10
228.141098
 20
358.644822
 30
0.0
 10
227.312672
 20
358.644822
 30
0.0
 10
226.641098
 20
359.316395
 30
0.0
 10
226.641098
 20
360.144822
 30
0.0
  0
SPLINE
  5
1ab
100
AcDbEntity
  8
Layer_1
 62
7
100
AcDbSpline
 70
8
 71
3
 72
8
 73
4
 74
0
 40
0
 40
0
 40
0
 40
0
 40
1
 40
1
 40
1
 40
1
 10
226.641098
 20
360.144822
 30
0.0
 10
226.641098
 20
360.973249
 30
0.0
 10
227.312672
 20
361.644822
 30
0.0
 10
228.141098
 20
361.644822
 30
0.0
  0
LWPOLYLINE
  5
1ac
100
AcDbEntity
  8
Layer_1
 62
7
100
AcDbPolyline
 90
2
 70
0
 10
232.141099
 20
372.144821
 30
0.0
 10
232.141099
 20
372.144821
 30
0.0
  0
SPLINE
  5
1ad
100
AcDbEntity
  8
Layer_1
 62
7
100
AcDbSpline
 70
8
 71
3
 72
8
 73
4
 74
0
 40
0
 40
0
 40
0
 40
0
 40
1
 40
1
 40
1
 40
1
 10
228.141098
 20
364.144820
 30
0.0
 10
230.350238
 20
364.144820
 30
0.0
 10
232.141099
 20
362.353959
 30
0.0
 10
232.141099
 20
360.144822
 30
0.0
  0
SPLINE
  5
1ae
100
AcDbEntity
  8
Layer_1
 62
7
100
AcDbSpline
 70
8
 71
3
 72
8
 73
4
 74
0
 40
0
 40
0
 40
0
 40
0
 40
1
 40
1
 40
1
 40
1
 10
232.141099
 20
360.144822
 30
0.0
 10
232.141099
 20
357.935682
 30
0.0
 10
230.350238
 20
356.144822
 30
0.0
 10
228.141098
 20
356.144822
 30
0.0
  0
SPLINE
  5
1af
100
AcDbEntity
  8
Layer_1
 62
7
100
AcDbSpline
 70
8
 71
3
 72
8
 73
4
 74
0
 40
0
 40
0
 40
0
 40
0
 40
1
 40
1
 40
1
 40
1
 10
228.141098
 20
356.144822
 30
0.0
 10
225.931961
 20
356.144822
 30
0.0
 10
224.141101
 20
357.935682
 30
0.0
 10
224.141101
 20
360.144822
 30
0.0
  0
SPLINE
  5
1b0
100
AcDbEntity
  8
Layer_1
 62
7
100
AcDbSpline
 70
8
 71
3
 72
8
 73
4
 74
0
 40
0
 40
0
 40
0
 40
0
 40
1
 40
1
 40
1
 40
1
 10
224.141101
 20
360.144822
 30
0.0
 10
224.141101
 20
362.353959
 30
0.0
 10
225.931961
 20
364.144820
 30
0.0
 10
228.141098
 20
364.144820
 30
0.0
  0
LWPOLYLINE
  5
1b1
100
AcDbEntity
  8
Layer_1
 62
7
100
AcDbPolyline
 90
2
 70
0
 10
228.141098
 20
361.644822
 30
0.0
 10
228.141098
 20
361.644822
 30
0.0
  0
SPLINE
  5
1b2
100
AcDbEntity
  8
Layer_1
 62
7
100
AcDbSpline
 70
8
 71
3
 72
8
 73
4
 74
0
 40
0
 40
0
 40
0
 40
0
 40
1
 40
1
 40
1
 40
1
 10
228.141109
 20
345.644823
 30
0.0
 10
228.969539
 20
345.644823
 30
0.0
 10
229.641112
 20
344.973250
 30
0.0
 10
229.641112
 20
344.144823
 30
0.0
  0
SPLINE
  5
1b3
100
AcDbEntity
  8
Layer_1
 62
7
100
AcDbSpline
 70
8
 71
3
 72
8
 73
4
 74
0
 40
0
 40
0
 40
0
 40
0
 40
1
 40
1
 40
1
 40
1
 10
229.641112
 20
344.144823
 30
0.0
 10
229.641112
 20
343.316396
 30
0.0
 10
228.969539
 20
342.644823
 30
0.0
 10
228.141109
 20
342.644823
 30
0.0
  0
SPLINE
  5
1b4
100
AcDbEntity
  8
Layer_1
 62
7
100
AcDbSpline
 70
8
 71
3
 72
8
 73
4
 74
0
 40
0
 40
0
 40
0
 40
0
 40
1
 40
1
 40
1
 40
1
 10
228.141109
 20
342.644823
 30
0.0
 10
227.312683
 20
342.644823
 30
0.0
 10
226.641110
 20
343.316396
 30
0.0
 10
226.641110
 20
344.144823
 30
0.0
  0
SPLINE
  5
1b5
100
AcDbEntity
  8
Layer_1
 62
7
100
AcDbSpline
 70
8
 71
3
 72
8
 73
4
 74
0
 40
0
 40
0
 40
0
 40
0
 40
1
 40
1
 40
1
 40
1
 10
226.641110
 20
344.144823
 30
0.0
 10
226.641110
 20
344.973250
 30
0.0
 10
227.312683
 20
345.644823
 30
0.0
 10
228.141109
 20
345.644823
 30
0.0
  0
LWPOLYLINE
  5
1b6
100
AcDbEntity
  8
Layer_1
 62
7
100
AcDbPolyline
 90
2
 70
0
 10
228.141098
 20
364.144820
 30
0.0
 10
228.141098
 20
364.144820
 30
0.0
  0
SPLINE
  5
1b7
100
AcDbEntity
  8
Layer_1
 62
7
100
AcDbSpline
 70
8
 71
3
 72
8
 73
4
 74
0
 40
0
 40
0
 40
0
 40
0
 40
1
 40
1
 40
1
 40
1
 10
228.141109
 20
348.144821
 30
0.0
 10
230.350258
 20
348.144821
 30
0.0
 10
232.141099
 20
346.353960
 30
0.0
 10
232.141099
 20
344.144823
 30
0.0
  0
SPLINE
  5
1b8
100
AcDbEntity
  8
Layer_1
 62
7
100
AcDbSpline
 70
8
 71
3
 72
8
 73
4
 74
0
 40
0
 40
0
 40
0
 40
0
 40
1
 40
1
 40
1
 40
1
 10
232.141099
 20
344.144823
 30
0.0
 10
232.141099
 20
341.935683
 30
0.0
 10
230.350258
 20
340.144822
 30
0.0
 10
228.141109
 20
340.144822
 30
0.0
  0
SPLINE
  5
1b9
100
AcDbEntity
  8
Layer_1
 62
7
100
AcDbSpline
 70
8
 71
3
 72
8
 73
4
 74
0
 40
0
 40
0
 40
0
 40
0
 40
1
 40
1
 40
1
 40
1
 10
228.141109
 20
340.144822
 30
0.0
 10
225.931973
 20
340.144822
 30
0.0
 10
224.141112
 20
341.935683
 30
0.0
 10
224.141112
 20
344.144823
 30
0.0
  0
SPLINE
  5
1ba
100
AcDbEntity
  8
Layer_1
 62
7
100
AcDbSpline
 70
8
 71
3
 72
8
 73
4
 74
0
 40
0
 40
0
 40
0
 40
0
 40
1
 40
1
 40
1
 40
1
 10
224.141112
 20
344.144823
 30
0.0
 10
224.141112
 20
346.353960
 30
0.0
 10
225.931973
 20
348.144821
 30
0.0
 10
228.141109
 20
348.144821
 30
0.0
  0
LWPOLYLINE
  5
1bb
100
AcDbEntity
  8
Layer_1
 62
7
100
AcDbPolyline
 90
2
 70
0
 10
228.141109
 20
345.644823
 30
0.0
 10
228.141109
 20
345.644823
 30
0.0
  0
SPLINE
  5
1bc
100
AcDbEntity
  8
Layer_1
 62
7
100
AcDbSpline
 70
8
 71
3
 72
8
 73
4
 74
0
 40
0
 40
0
 40
0
 40
0
 40
1
 40
1
 40
1
 40
1
 10
232.141110
 20
353.644821
 30
0.0
 10
232.969539
 20
353.644821
 30
0.0
 10
233.641113
 20
352.973248
 30
0.0
 10
233.641113
 20
352.144821
 30
0.0
  0
SPLINE
  5
1bd
100
AcDbEntity
  8
Layer_1
 62
7
100
AcDbSpline
 70
8
 71
3
 72
8
 73
4
 74
0
 40
0
 40
0
 40
0
 40
0
 40
1
 40
1
 40
1
 40
1
 10
233.641113
 20
352.144821
 30
0.0
 10
233.641113
 20
351.316394
 30
0.0
 10
232.969539
 20
350.644821
 30
0.0
 10
232.141110
 20
350.644821
 30
0.0
  0
SPLINE
  5
1be
100
AcDbEntity
  8
Layer_1
 62
7
100
AcDbSpline
 70
8
 71
3
 72
8
 73
4
 74
0
 40
0
 40
0
 40
0
 40
0
 40
1
 40
1
 40
1
 40
1
 10
232.141110
 20
350.644821
 30
0.0
 10
231.312683
 20
350.644821
 30
0.0
 10
230.641110
 20
351.316394
 30
0.0
 10
230.641110
 20
352.144821
 30
0.0
  0
SPLINE
  5
1bf
100
AcDbEntity
  8
Layer_1
 62
7
100
AcDbSpline
 70
8
 71
3
 72
8
 73
4
 74
0
 40
0
 40
0
 40
0
 40
0
 40
1
 40
1
 40
1
 40
1
 10
230.641110
 20
352.144821
 30
0.0
 10
230.641110
 20
352.973248
 30
0.0
 10
231.312683
 20
353.644821
 30
0.0
 10
232.141110
 20
353.644821
 30
0.0
  0
LWPOLYLINE
  5
1c0
100
AcDbEntity
  8
Layer_1
 62
7
100
AcDbPolyline
 90
2
 70
0
 10
228.141109
 20
348.144821
 30
0.0
 10
228.141109
 20
348.144821
 30
0.0
  0
SPLINE
  5
1c1
100
AcDbEntity
  8
Layer_1
 62
7
100
AcDbSpline
 70
8
 71
3
 72
8
 73
4
 74
0
 40
0
 40
0
 40
0
 40
0
 40
1
 40
1
 40
1
 40
1
 10
232.141110
 20
356.144819
 30
0.0
 10
234.350258
 20
356.144819
 30
0.0
 10
236.141099
 20
354.353958
 30
0.0
 10
236.141099
 20
352.144821
 30
0.0
  0
SPLINE
  5
1c2
100
AcDbEntity
  8
Layer_1
 62
7
100
AcDbSpline
 70
8
 71
3
 72
8
 73
4
 74
0
 40
0
 40
0
 40
0
 40
0
 40
1
 40
1
 40
1
 40
1
 10
236.141099
 20
352.144821
 30
0.0
 10
236.141099
 20
349.935681
 30
0.0
 10
234.350258
 20
348.144821
 30
0.0
 10
232.141110
 20
348.144821
 30
0.0
  0
SPLINE
  5
1c3
100
AcDbEntity
  8
Layer_1
 62
7
100
AcDbSpline
 70
8
 71
3
 72
8
 73
4
 74
0
 40
0
 40
0
 40
0
 40
0
 40
1
 40
1
 40
1
 40
1
 10
232.141110
 20
348.144821
 30
0.0
 10
229.931973
 20
348.144821
 30
0.0
 10
228.141112
 20
349.935681
 30
0.0
 10
228.141112
 20
352.144821
 30
0.0
  0
SPLINE
  5
1c4
100
AcDbEntity
  8
Layer_1
 62
7
100
AcDbSpline
 70
8
 71
3
 72
8
 73
4
 74
0
 40
0
 40
0
 40
0
 40
0
 40
1
 40
1
 40
1
 40
1
 10
228.141112
 20
352.144821
 30
0.0
 10
228.141112
 20
354.353958
 30
0.0
 10
229.931973
 20
356.144819
 30
0.0
 10
232.141110
 20
356.144819
 30
0.0
  0
LWPOLYLINE
  5
1c5
100
AcDbEntity
  8
Layer_1
 62
7
100
AcDbPolyline
 90
2
 70
0
 10
232.141110
 20
353.644821
 30
0.0
 10
232.141110
 20
353.644821
 30
0.0
  0
LWPOLYLINE
  5
1c6
100
AcDbEntity
  8
Layer_1
 62
7
100
AcDbPolyline
 90
2
 70
0
 10
232.141110
 20
356.144819
 30
0.0
 10
232.141110
 20
356.144819
 30
0.0
  0
LWPOLYLINE
  5
1c7
100
AcDbEntity
  8
Layer_1
 62
7
100
AcDbPolyline
 90
2
 70
0
 10
268.143146
 20
220.141772
 30
0.0
 10
268.143146
 20
244.141752
 30
0.0
  0
LWPOLYLINE
  5
1c8
100
AcDbEntity
  8
Layer_1
 62
7
100
AcDbPolyline
 90
2
 70
0
 10
264.143146
 20
248.141772
 30
0.0
 10
264.143146
 20
216.141752
 30
0.0
  0
LWPOLYLINE
  5
1c9
100
AcDbEntity
  8
Layer_1
 62
7
100
AcDbPolyline
 90
2
 70
0
 10
260.143145
 20
252.141792
 30
0.0
 10
260.140887
 20
212.144836
 30
0.0
  0
LWPOLYLINE
  5
1ca
100
AcDbEntity
  8
Layer_1
 62
7
100
AcDbPolyline
 90
2
 70
0
 10
256.143181
 20
252.141792
 30
0.0
 10
256.140924
 20
212.144836
 30
0.0
  0
LWPOLYLINE
  5
1cb
100
AcDbEntity
  8
Layer_1
 62
7
100
AcDbPolyline
 90
2
 70
0
 10
252.143218
 20
252.141792
 30
0.0
 10
252.140960
 20
212.144836
 30
0.0
  0
LWPOLYLINE
  5
1cc
100
AcDbEntity
  8
Layer_1
 62
7
100
AcDbPolyline
 90
2
 70
0
 10
248.143254
 20
252.141792
 30
0.0
 10
248.140996
 20
212.144836
 30
0.0
  0
LWPOLYLINE
  5
1cd
100
AcDbEntity
  8
Layer_1
 62
7
100
AcDbPolyline
 90
2
 70
0
 10
244.143293
 20
252.141792
 30
0.0
 10
244.141035
 20
212.144836
 30
0.0
  0
LWPOLYLINE
  5
1ce
100
AcDbEntity
  8
Layer_1
 62
7
100
AcDbPolyline
 90
2
 70
0
 10
240.143329
 20
252.141792
 30
0.0
 10
240.141071
 20
212.144836
 30
0.0
  0
LWPOLYLINE
  5
1cf
100
AcDbEntity
  8
Layer_1
 62
7
100
AcDbPolyline
 90
2
 70
0
 10
236.143365
 20
252.141792
 30
0.0
 10
236.141108
 20
212.144836
 30
0.0
  0
LWPOLYLINE
  5
1d0
100
AcDbEntity
  8
Layer_1
 62
7
100
AcDbPolyline
 90
2
 70
0
 10
232.143402
 20
248.141772
 30
0.0
 10
232.143402
 20
216.141752
 30
0.0
  0
SPLINE
  5
1d1
100
AcDbEntity
  8
Layer_1
 62
7
100
AcDbSpline
 70
8
 71
3
 72
8
 73
4
 74
0
 40
0
 40
0
 40
0
 40
0
 40
1
 40
1
 40
1
 40
1
 10
240.143403
 20
264.141794
 30
0.0
 10
241.321505
 20
261.610354
 30
0.0
 10
248.139373
 20
261.645891
 30
0.0
 10
248.139373
 20
261.645891
 30
0.0
  0
SPLINE
  5
1d2
100
AcDbEntity
  8
Layer_1
 62
7
100
AcDbSpline
 70
8
 71
3
 72
8
 73
4
 74
0
 40
0
 40
0
 40
0
 40
0
 40
1
 40
1
 40
1
 40
1
 10
248.139373
 20
261.645891
 30
0.0
 10
248.967800
 20
261.645891
 30
0.0
 10
249.647498
 20
260.975012
 30
0.0
 10
249.647498
 20
260.146586
 30
0.0
  0
SPLINE
  5
1d3
100
AcDbEntity
  8
Layer_1
 62
7
100
AcDbSpline
 70
8
 71
3
 72
8
 73
4
 74
0
 40
0
 40
0
 40
0
 40
0
 40
1
 40
1
 40
1
 40
1
 10
249.647498
 20
260.146586
 30
0.0
 10
249.647498
 20
259.318159
 30
0.0
 10
248.967800
 20
258.647280
 30
0.0
 10
248.139373
 20
258.647280
 30
0.0
  0
LWPOLYLINE
  5
1d4
100
AcDbEntity
  8
Layer_1
 62
7
100
AcDbPolyline
 90
2
 70
0
 10
228.143401
 20
244.141752
 30
0.0
 10
228.143401
 20
220.141772
 30
0.0
  0
SPLINE
  5
1d5
100
AcDbEntity
  8
Layer_1
 62
7
100
AcDbSpline
 70
8
 71
3
 72
8
 73
4
 74
0
 40
0
 40
0
 40
0
 40
0
 40
1
 40
1
 40
1
 40
1
 10
240.600905
 20
258.647280
 30
0.0
 10
240.600905
 20
258.647280
 30
0.0
 10
239.960266
 20
258.680114
 30
0.0
 10
239.643401
 20
258.641805
 30
0.0
  0
SPLINE
  5
1d6
100
AcDbEntity
  8
Layer_1
 62
7
100
AcDbSpline
 70
8
 71
3
 72
8
 73
4
 74
0
 40
0
 40
0
 40
0
 40
0
 40
1
 40
1
 40
1
 40
1
 10
239.643401
 20
258.641805
 30
0.0
 10
239.102581
 20
258.576400
 30
0.0
 10
238.405015
 20
258.396884
 30
0.0
 10
238.054030
 20
258.261307
 30
0.0
  0
SPLINE
  5
1d7
100
AcDbEntity
  8
Layer_1
 62
7
100
AcDbSpline
 70
8
 71
3
 72
8
 73
4
 74
0
 40
0
 40
0
 40
0
 40
0
 40
1
 40
1
 40
1
 40
1
 10
238.054030
 20
258.261307
 30
0.0
 10
227.576188
 20
254.213972
 30
0.0
 10
220.146457
 20
244.052146
 30
0.0
 10
220.146457
 20
232.144824
 30
0.0
  0
SPLINE
  5
1d8
100
AcDbEntity
  8
Layer_1
 62
7
100
AcDbSpline
 70
8
 71
3
 72
8
 73
4
 74
0
 40
0
 40
0
 40
0
 40
0
 40
1
 40
1
 40
1
 40
1
 10
220.146457
 20
232.144824
 30
0.0
 10
220.146457
 20
221.959847
 30
0.0
 10
225.579853
 20
213.046705
 30
0.0
 10
233.710762
 20
208.147130
 30
0.0
  0
LWPOLYLINE
  5
1d9
100
AcDbEntity
  8
Layer_1
 62
7
100
AcDbPolyline
 90
2
 70
0
 10
248.139373
 20
258.647280
 30
0.0
 10
240.600905
 20
258.647280
 30
0.0
  0
SPLINE
  5
1da
100
AcDbEntity
  8
Layer_1
 62
7
100
AcDbSpline
 70
8
 71
3
 72
8
 73
4
 74
0
 40
0
 40
0
 40
0
 40
0
 40
1
 40
1
 40
1
 40
1
 10
262.576804
 20
208.147130
 30
0.0
 10
270.707714
 20
213.046705
 30
0.0
 10
276.141109
 20
221.959847
 30
0.0
 10
276.141109
 20
232.144824
 30
0.0
  0
SPLINE
  5
1db
100
AcDbEntity
  8
Layer_1
 62
7
100
AcDbSpline
 70
8
 71
3
 72
8
 73
4
 74
0
 40
0
 40
0
 40
0
 40
0
 40
1
 40
1
 40
1
 40
1
 10
276.141109
 20
232.144824
 30
0.0
 10
276.141109
 20
239.186156
 30
0.0
 10
273.540471
 20
245.619242
 30
0.0
 10
269.247739
 20
250.538276
 30
0.0
  0
SPLINE
  5
1dc
100
AcDbEntity
  8
Layer_1
 62
7
100
AcDbSpline
 70
8
 71
3
 72
8
 73
4
 74
0
 40
0
 40
0
 40
0
 40
0
 40
1
 40
1
 40
1
 40
1
 10
269.247739
 20
250.538276
 30
0.0
 10
255.643403
 20
268.641793
 30
0.0
 10
261.749334
 20
274.974922
 30
0.0
 10
256.143402
 20
280.641795
 30
0.0
  0
SPLINE
  5
1dd
100
AcDbEntity
  8
Layer_1
 62
7
100
AcDbSpline
 70
8
 71
3
 72
8
 73
4
 74
0
 40
0
 40
0
 40
0
 40
0
 40
1
 40
1
 40
1
 40
1
 10
256.143402
 20
280.641795
 30
0.0
 10
252.737507
 20
283.582861
 30
0.0
 10
246.055408
 20
283.575771
 30
0.0
 10
242.643400
 20
280.641795
 30
0.0
  0
SPLINE
  5
1de
100
AcDbEntity
  8
Layer_1
 62
7
100
AcDbSpline
 70
8
 71
3
 72
8
 73
4
 74
0
 40
0
 40
0
 40
0
 40
0
 40
1
 40
1
 40
1
 40
1
 10
242.643400
 20
280.641795
 30
0.0
 10
238.425578
 20
277.014895
 30
0.0
 10
237.787959
 20
270.297622
 30
0.0
 10
240.143403
 20
264.141794
 30
0.0
  0
LWPOLYLINE
  5
1df
100
AcDbEntity
  8
Layer_1
 62
7
100
AcDbPolyline
 90
2
 70
0
 10
233.710762
 20
208.147130
 30
0.0
 10
262.576804
 20
208.147130
 30
0.0
  0
LWPOLYLINE
  5
1e0
100
AcDbEntity
  8
Layer_1
 62
7
100
AcDbPolyline
 90
2
 70
0
 10
240.143403
 20
264.141794
 30
0.0
 10
240.143403
 20
264.141794
 30
0.0
  0
LWPOLYLINE
  5
1e1
100
AcDbEntity
  8
Layer_1
 62
7
100
AcDbPolyline
 90
2
 70
0
 10
268.143403
 20
300.141770
 30
0.0
 10
268.143403
 20
324.141750
 30
0.0
  0
LWPOLYLINE
  5
1e2
100
AcDbEntity
  8
Layer_1
 62
7
100
AcDbPolyline
 90
2
 70
0
 10
264.143403
 20
328.141770
 30
0.0
 10
264.143403
 20
296.141750
 30
0.0
  0
LWPOLYLINE
  5
1e3
100
AcDbEntity
  8
Layer_1
 62
7
100
AcDbPolyline
 90
2
 70
0
 10
260.143402
 20
332.141779
 30
0.0
 10
260.141144
 20
292.144823
 30
0.0
  0
LWPOLYLINE
  5
1e4
100
AcDbEntity
  8
Layer_1
 62
7
100
AcDbPolyline
 90
2
 70
0
 10
256.143438
 20
332.141779
 30
0.0
 10
256.141180
 20
292.144823
 30
0.0
  0
LWPOLYLINE
  5
1e5
100
AcDbEntity
  8
Layer_1
 62
7
100
AcDbPolyline
 90
2
 70
0
 10
252.143474
 20
332.141779
 30
0.0
 10
252.141217
 20
292.144823
 30
0.0
  0
LWPOLYLINE
  5
1e6
100
AcDbEntity
  8
Layer_1
 62
7
100
AcDbPolyline
 90
2
 70
0
 10
248.143511
 20
332.141779
 30
0.0
 10
248.141253
 20
292.144823
 30
0.0
  0
LWPOLYLINE
  5
1e7
100
AcDbEntity
  8
Layer_1
 62
7
100
AcDbPolyline
 90
2
 70
0
 10
244.143550
 20
332.141779
 30
0.0
 10
244.141292
 20
292.144823
 30
0.0
  0
LWPOLYLINE
  5
1e8
100
AcDbEntity
  8
Layer_1
 62
7
100
AcDbPolyline
 90
2
 70
0
 10
240.143586
 20
332.141779
 30
0.0
 10
240.141328
 20
292.144823
 30
0.0
  0
LWPOLYLINE
  5
1e9
100
AcDbEntity
  8
Layer_1
 62
7
100
AcDbPolyline
 90
2
 70
0
 10
236.143622
 20
332.141779
 30
0.0
 10
236.141364
 20
292.144823
 30
0.0
  0
LWPOLYLINE
  5
1ea
100
AcDbEntity
  8
Layer_1
 62
7
100
AcDbPolyline
 90
2
 70
0
 10
232.143658
 20
328.141770
 30
0.0
 10
232.143658
 20
296.141750
 30
0.0
  0
SPLINE
  5
1eb
100
AcDbEntity
  8
Layer_1
 62
7
100
AcDbSpline
 70
8
 71
3
 72
8
 73
4
 74
0
 40
0
 40
0
 40
0
 40
0
 40
1
 40
1
 40
1
 40
1
 10
240.143659
 20
344.141781
 30
0.0
 10
241.321762
 20
341.610340
 30
0.0
 10
248.139630
 20
341.645878
 30
0.0
 10
248.139630
 20
341.645878
 30
0.0
  0
SPLINE
  5
1ec
100
AcDbEntity
  8
Layer_1
 62
7
100
AcDbSpline
 70
8
 71
3
 72
8
 73
4
 74
0
 40
0
 40
0
 40
0
 40
0
 40
1
 40
1
 40
1
 40
1
 10
248.139630
 20
341.645878
 30
0.0
 10
248.968057
 20
341.645878
 30
0.0
 10
249.647755
 20
340.974999
 30
0.0
 10
249.647755
 20
340.146572
 30
0.0
  0
SPLINE
  5
1ed
100
AcDbEntity
  8
Layer_1
 62
7
100
AcDbSpline
 70
8
 71
3
 72
8
 73
4
 74
0
 40
0
 40
0
 40
0
 40
0
 40
1
 40
1
 40
1
 40
1
 10
249.647755
 20
340.146572
 30
0.0
 10
249.647755
 20
339.318146
 30
0.0
 10
248.968057
 20
338.647267
 30
0.0
 10
248.139630
 20
338.647267
 30
0.0
  0
LWPOLYLINE
  5
1ee
100
AcDbEntity
  8
Layer_1
 62
7
100
AcDbPolyline
 90
2
 70
0
 10
228.143658
 20
324.141750
 30
0.0
 10
228.143658
 20
300.141770
 30
0.0
  0
SPLINE
  5
1ef
100
AcDbEntity
  8
Layer_1
 62
7
100
AcDbSpline
 70
8
 71
3
 72
8
 73
4
 74
0
 40
0
 40
0
 40
0
 40
0
 40
1
 40
1
 40
1
 40
1
 10
240.601161
 20
338.647267
 30
0.0
 10
240.601161
 20
338.647267
 30
0.0
 10
239.960523
 20
338.680100
 30
0.0
 10
239.643658
 20
338.641792
 30
0.0
  0
SPLINE
  5
1f0
100
AcDbEntity
  8
Layer_1
 62
7
100
AcDbSpline
 70
8
 71
3
 72
8
 73
4
 74
0
 40
0
 40
0
 40
0
 40
0
 40
1
 40
1
 40
1
 40
1
 10
239.643658
 20
338.641792
 30
0.0
 10
239.102838
 20
338.576387
 30
0.0
 10
238.405272
 20
338.396871
 30
0.0
 10
238.054286
 20
338.261294
 30
0.0
  0
SPLINE
  5
1f1
100
AcDbEntity
  8
Layer_1
 62
7
100
AcDbSpline
 70
8
 71
3
 72
8
 73
4
 74
0
 40
0
 40
0
 40
0
 40
0
 40
1
 40
1
 40
1
 40
1
 10
238.054286
 20
338.261294
 30
0.0
 10
227.576445
 20
334.213959
 30
0.0
 10
220.146713
 20
324.052144
 30
0.0
 10
220.146713
 20
312.144822
 30
0.0
  0
SPLINE
  5
1f2
100
AcDbEntity
  8
Layer_1
 62
7
100
AcDbSpline
 70
8
 71
3
 72
8
 73
4
 74
0
 40
0
 40
0
 40
0
 40
0
 40
1
 40
1
 40
1
 40
1
 10
220.146713
 20
312.144822
 30
0.0
 10
220.146713
 20
301.959845
 30
0.0
 10
225.580109
 20
293.046703
 30
0.0
 10
233.711019
 20
288.147128
 30
0.0
  0
LWPOLYLINE
  5
1f3
100
AcDbEntity
  8
Layer_1
 62
7
100
AcDbPolyline
 90
2
 70
0
 10
248.139630
 20
338.647267
 30
0.0
 10
240.601161
 20
338.647267
 30
0.0
  0
SPLINE
  5
1f4
100
AcDbEntity
  8
Layer_1
 62
7
100
AcDbSpline
 70
8
 71
3
 72
8
 73
4
 74
0
 40
0
 40
0
 40
0
 40
0
 40
1
 40
1
 40
1
 40
1
 10
262.577061
 20
288.147128
 30
0.0
 10
270.707970
 20
293.046703
 30
0.0
 10
276.141366
 20
301.959845
 30
0.0
 10
276.141366
 20
312.144822
 30
0.0
  0
SPLINE
  5
1f5
100
AcDbEntity
  8
Layer_1
 62
7
100
AcDbSpline
 70
8
 71
3
 72
8
 73
4
 74
0
 40
0
 40
0
 40
0
 40
0
 40
1
 40
1
 40
1
 40
1
 10
276.141366
 20
312.144822
 30
0.0
 10
276.141366
 20
319.186154
 30
0.0
 10
273.540728
 20
325.619240
 30
0.0
 10
269.247995
 20
330.538263
 30
0.0
  0
SPLINE
  5
1f6
100
AcDbEntity
  8
Layer_1
 62
7
100
AcDbSpline
 70
8
 71
3
 72
8
 73
4
 74
0
 40
0
 40
0
 40
0
 40
0
 40
1
 40
1
 40
1
 40
1
 10
269.247995
 20
330.538263
 30
0.0
 10
255.643659
 20
348.641780
 30
0.0
 10
261.749591
 20
354.974909
 30
0.0
 10
256.143658
 20
360.641781
 30
0.0
  0
SPLINE
  5
1f7
100
AcDbEntity
  8
Layer_1
 62
7
100
AcDbSpline
 70
8
 71
3
 72
8
 73
4
 74
0
 40
0
 40
0
 40
0
 40
0
 40
1
 40
1
 40
1
 40
1
 10
256.143658
 20
360.641781
 30
0.0
 10
252.737764
 20
363.582847
 30
0.0
 10
246.055665
 20
363.575758
 30
0.0
 10
242.643657
 20
360.641781
 30
0.0
  0
SPLINE
  5
1f8
100
AcDbEntity
  8
Layer_1
 62
7
100
AcDbSpline
 70
8
 71
3
 72
8
 73
4
 74
0
 40
0
 40
0
 40
0
 40
0
 40
1
 40
1
 40
1
 40
1
 10
242.643657
 20
360.641781
 30
0.0
 10
238.425835
 20
357.014882
 30
0.0
 10
237.788216
 20
350.297609
 30
0.0
 10
240.143659
 20
344.141781
 30
0.0
  0
LWPOLYLINE
  5
1f9
100
AcDbEntity
  8
Layer_1
 62
7
100
AcDbPolyline
 90
2
 70
0
 10
233.711019
 20
288.147128
 30
0.0
 10
262.577061
 20
288.147128
 30
0.0
  0
LWPOLYLINE
  5
1fa
100
AcDbEntity
  8
Layer_1
 62
7
100
AcDbPolyline
 90
2
 70
0
 10
240.143659
 20
344.141781
 30
0.0
 10
240.143659
 20
344.141781
 30
0.0
  0
LWPOLYLINE
  5
1fb
100
AcDbEntity
  8
Layer_1
 62
7
100
AcDbPolyline
 90
2
 70
0
 10
224.141109
 20
148.144823
 30
0.0
 10
224.141109
 20
132.144826
 30
0.0
  0
LWPOLYLINE
  5
1fc
100
AcDbEntity
  8
Layer_1
 62
7
100
AcDbPolyline
 90
2
 70
0
 10
228.141109
 20
152.144815
 30
0.0
 10
228.141109
 20
128.144834
 30
0.0
  0
LWPOLYLINE
  5
1fd
100
AcDbEntity
  8
Layer_1
 62
7
100
AcDbPolyline
 90
2
 70
0
 10
232.141107
 20
156.144835
 30
0.0
 10
232.141107
 20
124.144814
 30
0.0
  0
LWPOLYLINE
  5
1fe
100
AcDbEntity
  8
Layer_1
 62
7
100
AcDbPolyline
 90
2
 70
0
 10
236.141108
 20
160.144821
 30
0.0
 10
236.141108
 20
120.144822
 30
0.0
  0
LWPOLYLINE
  5
1ff
100
AcDbEntity
  8
Layer_1
 62
7
100
AcDbPolyline
 90
2
 70
0
 10
240.141108
 20
160.144821
 30
0.0
 10
240.141108
 20
120.144822
 30
0.0
  0
LWPOLYLINE
  5
200
100
AcDbEntity
  8
Layer_1
 62
7
100
AcDbPolyline
 90
2
 70
0
 10
264.141108
 20
148.144823
 30
0.0
 10
264.141108
 20
132.144826
 30
0.0
  0
LWPOLYLINE
  5
201
100
AcDbEntity
  8
Layer_1
 62
7
100
AcDbPolyline
 90
2
 70
0
 10
260.141108
 20
152.144815
 30
0.0
 10
260.141108
 20
128.144834
 30
0.0
  0
LWPOLYLINE
  5
202
100
AcDbEntity
  8
Layer_1
 62
7
100
AcDbPolyline
 90
2
 70
0
 10
256.141107
 20
156.144835
 30
0.0
 10
256.141107
 20
124.144814
 30
0.0
  0
LWPOLYLINE
  5
203
100
AcDbEntity
  8
Layer_1
 62
7
100
AcDbPolyline
 90
2
 70
0
 10
252.141109
 20
160.144821
 30
0.0
 10
252.141109
 20
120.144822
 30
0.0
  0
LWPOLYLINE
  5
204
100
AcDbEntity
  8
Layer_1
 62
7
100
AcDbPolyline
 90
2
 70
0
 10
248.141109
 20
160.144821
 30
0.0
 10
248.141109
 20
120.144822
 30
0.0
  0
LWPOLYLINE
  5
205
100
AcDbEntity
  8
Layer_1
 62
7
100
AcDbPolyline
 90
2
 70
0
 10
244.141109
 20
160.144821
 30
0.0
 10
244.141109
 20
120.144822
 30
0.0
  0
LWPOLYLINE
  5
206
100
AcDbEntity
  8
Layer_1
 62
7
100
AcDbPolyline
 90
21
 70
0
 10
204.143681
 20
204.146503
 30
0.0
 10
204.143681
 20
192.143239
 30
0.0
 10
208.138889
 20
192.143239
 30
0.0
 10
208.138889
 20
176.144767
 30
0.0
 10
204.143681
 20
176.144767
 30
0.0
 10
204.143681
 20
132.144544
 30
0.0
 10
208.138889
 20
132.144544
 30
0.0
 10
208.138889
 20
116.146100
 30
0.0
 10
204.143681
 20
116.146100
 30
0.0
 10
204.143681
 20
104.142822
 30
0.0
 10
284.144861
 20
104.142822
 30
0.0
 10
284.144861
 20
116.146100
 30
0.0
 10
280.140833
 20
116.296017
 30
0.0
 10
280.140833
 20
132.144544
 30
0.0
 10
284.144861
 20
132.144544
 30
0.0
 10
284.144861
 20
176.144767
 30
0.0
 10
280.140833
 20
176.144767
 30
0.0
 10
280.140833
 20
192.143239
 30
0.0
 10
284.144861
 20
192.143239
 30
0.0
 10
284.144861
 20
204.146503
 30
0.0
 10
204.143681
 20
204.146503
 30
0.0
  0
LWPOLYLINE
  5
207
100
AcDbEntity
  8
Layer_1
 62
7
100
AcDbPolyline
 90
5
 70
0
 10
220.142153
 20
196.147267
 30
0.0
 10
228.141389
 20
196.147267
 30
0.0
 10
228.141389
 20
192.143239
 30
0.0
 10
220.142153
 20
192.143239
 30
0.0
 10
220.142153
 20
196.147267
 30
0.0
  0
SPLINE
  5
208
100
AcDbEntity
  8
Layer_1
 62
7
100
AcDbSpline
 70
8
 71
3
 72
8
 73
4
 74
0
 40
0
 40
0
 40
0
 40
0
 40
1
 40
1
 40
1
 40
1
 10
244.139861
 20
169.389072
 30
0.0
 10
244.828709
 20
169.389072
 30
0.0
 10
245.383403
 20
168.834373
 30
0.0
 10
245.383403
 20
168.145531
 30
0.0
  0
SPLINE
  5
209
100
AcDbEntity
  8
Layer_1
 62
7
100
AcDbSpline
 70
8
 71
3
 72
8
 73
4
 74
0
 40
0
 40
0
 40
0
 40
0
 40
1
 40
1
 40
1
 40
1
 10
245.383403
 20
168.145531
 30
0.0
 10
245.383403
 20
167.456691
 30
0.0
 10
244.828709
 20
166.901989
 30
0.0
 10
244.139861
 20
166.901989
 30
0.0
  0
SPLINE
  5
20a
100
AcDbEntity
  8
Layer_1
 62
7
100
AcDbSpline
 70
8
 71
3
 72
8
 73
4
 74
0
 40
0
 40
0
 40
0
 40
0
 40
1
 40
1
 40
1
 40
1
 10
244.139861
 20
166.901989
 30
0.0
 10
243.451013
 20
166.901989
 30
0.0
 10
242.896319
 20
167.456691
 30
0.0
 10
242.896319
 20
168.145531
 30
0.0
  0
SPLINE
  5
20b
100
AcDbEntity
  8
Layer_1
 62
7
100
AcDbSpline
 70
8
 71
3
 72
8
 73
4
 74
0
 40
0
 40
0
 40
0
 40
0
 40
1
 40
1
 40
1
 40
1
 10
242.896319
 20
168.145531
 30
0.0
 10
242.896319
 20
168.834373
 30
0.0
 10
243.451013
 20
169.389072
 30
0.0
 10
244.139861
 20
169.389072
 30
0.0
  0
LWPOLYLINE
  5
20c
100
AcDbEntity
  8
Layer_1
 62
7
100
AcDbPolyline
 90
5
 70
0
 10
260.138333
 20
196.147267
 30
0.0
 10
268.137569
 20
196.147267
 30
0.0
 10
268.137569
 20
192.143239
 30
0.0
 10
260.138333
 20
192.143239
 30
0.0
 10
260.138333
 20
196.147267
 30
0.0
  0
SPLINE
  5
20d
100
AcDbEntity
  8
Layer_1
 62
7
100
AcDbSpline
 70
8
 71
3
 72
8
 73
4
 74
0
 40
0
 40
0
 40
0
 40
0
 40
1
 40
1
 40
1
 40
1
 10
244.642569
 20
164.132683
 30
0.0
 10
257.496282
 20
163.867507
 30
0.0
 10
267.863165
 20
153.499961
 30
0.0
 10
268.128750
 20
140.646489
 30
0.0
  0
SPLINE
  5
20e
100
AcDbEntity
  8
Layer_1
 62
7
100
AcDbSpline
 70
8
 71
3
 72
8
 73
4
 74
0
 40
0
 40
0
 40
0
 40
0
 40
1
 40
1
 40
1
 40
1
 10
268.128750
 20
139.641100
 30
0.0
 10
267.863165
 20
126.787600
 30
0.0
 10
257.496282
 20
116.420082
 30
0.0
 10
244.642569
 20
116.154906
 30
0.0
  0
SPLINE
  5
20f
100
AcDbEntity
  8
Layer_1
 62
7
100
AcDbSpline
 70
8
 71
3
 72
8
 73
4
 74
0
 40
0
 40
0
 40
0
 40
0
 40
1
 40
1
 40
1
 40
1
 10
243.637153
 20
116.154906
 30
0.0
 10
230.783415
 20
116.420082
 30
0.0
 10
220.416557
 20
126.787600
 30
0.0
 10
220.150972
 20
139.641100
 30
0.0
  0
SPLINE
  5
210
100
AcDbEntity
  8
Layer_1
 62
7
100
AcDbSpline
 70
8
 71
3
 72
8
 73
4
 74
0
 40
0
 40
0
 40
0
 40
0
 40
1
 40
1
 40
1
 40
1
 10
220.150972
 20
140.646489
 30
0.0
 10
220.416557
 20
153.499961
 30
0.0
 10
230.783415
 20
163.867507
 30
0.0
 10
243.637153
 20
164.132683
 30
0.0
  0
LWPOLYLINE
  5
211
100
AcDbEntity
  8
Layer_1
 62
7
100
AcDbPolyline
 90
2
 70
0
 10
244.139861
 20
169.389072
 30
0.0
 10
244.139861
 20
169.389072
 30
0.0
  0
LWPOLYLINE
  5
212
100
AcDbEntity
  8
Layer_1
 62
7
100
AcDbPolyline
 90
5
 70
0
 10
220.142153
 20
116.146100
 30
0.0
 10
228.141389
 20
116.146100
 30
0.0
 10
228.141389
 20
112.142044
 30
0.0
 10
220.142153
 20
112.142044
 30
0.0
 10
220.142153
 20
116.146100
 30
0.0
  0
LWPOLYLINE
  5
213
100
AcDbEntity
  8
Layer_1
 62
7
100
AcDbPolyline
 90
2
 70
0
 10
224.137355
 20
44.146837
 30
0.0
 10
224.137355
 20
28.146841
 30
0.0
  0
LWPOLYLINE
  5
214
100
AcDbEntity
  8
Layer_1
 62
7
100
AcDbPolyline
 90
2
 70
0
 10
228.137356
 20
48.146829
 30
0.0
 10
228.137356
 20
24.146849
 30
0.0
  0
LWPOLYLINE
  5
215
100
AcDbEntity
  8
Layer_1
 62
7
100
AcDbPolyline
 90
2
 70
0
 10
232.137354
 20
52.146849
 30
0.0
 10
232.137354
 20
20.146828
 30
0.0
  0
LWPOLYLINE
  5
216
100
AcDbEntity
  8
Layer_1
 62
7
100
AcDbPolyline
 90
2
 70
0
 10
236.137354
 20
56.146813
 30
0.0
 10
236.137354
 20
16.146836
 30
0.0
  0
LWPOLYLINE
  5
217
100
AcDbEntity
  8
Layer_1
 62
7
100
AcDbPolyline
 90
2
 70
0
 10
240.137355
 20
56.146813
 30
0.0
 10
240.137355
 20
16.146836
 30
0.0
  0
LWPOLYLINE
  5
218
100
AcDbEntity
  8
Layer_1
 62
7
100
AcDbPolyline
 90
2
 70
0
 10
264.137354
 20
44.146837
 30
0.0
 10
264.137354
 20
28.146841
 30
0.0
  0
LWPOLYLINE
  5
219
100
AcDbEntity
  8
Layer_1
 62
7
100
AcDbPolyline
 90
2
 70
0
 10
260.137354
 20
48.146829
 30
0.0
 10
260.137354
 20
24.146849
 30
0.0
  0
LWPOLYLINE
  5
21a
100
AcDbEntity
  8
Layer_1
 62
7
100
AcDbPolyline
 90
2
 70
0
 10
256.137354
 20
52.146849
 30
0.0
 10
256.137354
 20
20.146828
 30
0.0
  0
LWPOLYLINE
  5
21b
100
AcDbEntity
  8
Layer_1
 62
7
100
AcDbPolyline
 90
2
 70
0
 10
252.137356
 20
56.146813
 30
0.0
 10
252.137356
 20
16.146836
 30
0.0
  0
LWPOLYLINE
  5
21c
100
AcDbEntity
  8
Layer_1
 62
7
100
AcDbPolyline
 90
2
 70
0
 10
248.137355
 20
56.146813
 30
0.0
 10
248.137355
 20
16.146836
 30
0.0
  0
LWPOLYLINE
  5
21d
100
AcDbEntity
  8
Layer_1
 62
7
100
AcDbPolyline
 90
2
 70
0
 10
244.137355
 20
56.146813
 30
0.0
 10
244.137355
 20
16.146836
 30
0.0
  0
LWPOLYLINE
  5
21e
100
AcDbEntity
  8
Layer_1
 62
7
100
AcDbPolyline
 90
21
 70
0
 10
204.139927
 20
100.148503
 30
0.0
 10
204.139927
 20
88.145253
 30
0.0
 10
208.135135
 20
88.145253
 30
0.0
 10
208.135135
 20
72.146781
 30
0.0
 10
204.139927
 20
72.146781
 30
0.0
 10
204.139927
 20
28.146558
 30
0.0
 10
208.135135
 20
28.146558
 30
0.0
 10
208.135135
 20
12.148114
 30
0.0
 10
204.139927
 20
12.148114
 30
0.0
 10
204.139927
 20
0.144836
 30
0.0
 10
284.141108
 20
0.144836
 30
0.0
 10
284.141108
 20
12.148114
 30
0.0
 10
280.137080
 20
12.298031
 30
0.0
 10
280.137080
 20
28.146558
 30
0.0
 10
284.141108
 20
28.146558
 30
0.0
 10
284.141108
 20
72.146781
 30
0.0
 10
280.137080
 20
72.146781
 30
0.0
 10
280.137080
 20
88.145253
 30
0.0
 10
284.141108
 20
88.145253
 30
0.0
 10
284.141108
 20
100.148503
 30
0.0
 10
204.139927
 20
100.148503
 30
0.0
  0
LWPOLYLINE
  5
21f
100
AcDbEntity
  8
Layer_1
 62
7
100
AcDbPolyline
 90
5
 70
0
 10
220.138399
 20
92.149281
 30
0.0
 10
228.137635
 20
92.149281
 30
0.0
 10
228.137635
 20
88.145253
 30
0.0
 10
220.138399
 20
88.145253
 30
0.0
 10
220.138399
 20
92.149281
 30
0.0
  0
SPLINE
  5
220
100
AcDbEntity
  8
Layer_1
 62
7
100
AcDbSpline
 70
8
 71
3
 72
8
 73
4
 74
0
 40
0
 40
0
 40
0
 40
0
 40
1
 40
1
 40
1
 40
1
 10
244.136108
 20
65.391086
 30
0.0
 10
244.824956
 20
65.391086
 30
0.0
 10
245.379649
 20
64.836379
 30
0.0
 10
245.379649
 20
64.147531
 30
0.0
  0
SPLINE
  5
221
100
AcDbEntity
  8
Layer_1
 62
7
100
AcDbSpline
 70
8
 71
3
 72
8
 73
4
 74
0
 40
0
 40
0
 40
0
 40
0
 40
1
 40
1
 40
1
 40
1
 10
245.379649
 20
64.147531
 30
0.0
 10
245.379649
 20
63.458683
 30
0.0
 10
244.824956
 20
62.904003
 30
0.0
 10
244.136108
 20
62.904003
 30
0.0
  0
SPLINE
  5
222
100
AcDbEntity
  8
Layer_1
 62
7
100
AcDbSpline
 70
8
 71
3
 72
8
 73
4
 74
0
 40
0
 40
0
 40
0
 40
0
 40
1
 40
1
 40
1
 40
1
 10
244.136108
 20
62.904003
 30
0.0
 10
243.447260
 20
62.904003
 30
0.0
 10
242.892566
 20
63.458683
 30
0.0
 10
242.892566
 20
64.147531
 30
0.0
  0
SPLINE
  5
223
100
AcDbEntity
  8
Layer_1
 62
7
100
AcDbSpline
 70
8
 71
3
 72
8
 73
4
 74
0
 40
0
 40
0
 40
0
 40
0
 40
1
 40
1
 40
1
 40
1
 10
242.892566
 20
64.147531
 30
0.0
 10
242.892566
 20
64.836379
 30
0.0
 10
243.447260
 20
65.391086
 30
0.0
 10
244.136108
 20
65.391086
 30
0.0
  0
LWPOLYLINE
  5
224
100
AcDbEntity
  8
Layer_1
 62
7
100
AcDbPolyline
 90
5
 70
0
 10
260.134580
 20
92.149281
 30
0.0
 10
268.133816
 20
92.149281
 30
0.0
 10
268.133816
 20
88.145253
 30
0.0
 10
260.134580
 20
88.145253
 30
0.0
 10
260.134580
 20
92.149281
 30
0.0
  0
SPLINE
  5
225
100
AcDbEntity
  8
Layer_1
 62
7
100
AcDbSpline
 70
8
 71
3
 72
8
 73
4
 74
0
 40
0
 40
0
 40
0
 40
0
 40
1
 40
1
 40
1
 40
1
 10
244.638816
 20
60.134698
 30
0.0
 10
257.492528
 20
59.869522
 30
0.0
 10
267.859411
 20
49.501975
 30
0.0
 10
268.124996
 20
36.648503
 30
0.0
  0
SPLINE
  5
226
100
AcDbEntity
  8
Layer_1
 62
7
100
AcDbSpline
 70
8
 71
3
 72
8
 73
4
 74
0
 40
0
 40
0
 40
0
 40
0
 40
1
 40
1
 40
1
 40
1
 10
268.124996
 20
35.643114
 30
0.0
 10
267.859411
 20
22.789614
 30
0.0
 10
257.492528
 20
12.422096
 30
0.0
 10
244.638816
 20
12.156920
 30
0.0
  0
SPLINE
  5
227
100
AcDbEntity
  8
Layer_1
 62
7
100
AcDbSpline
 70
8
 71
3
 72
8
 73
4
 74
0
 40
0
 40
0
 40
0
 40
0
 40
1
 40
1
 40
1
 40
1
 10
243.633399
 20
12.156920
 30
0.0
 10
230.779661
 20
12.422096
 30
0.0
 10
220.412804
 20
22.789614
 30
0.0
 10
220.147219
 20
35.643114
 30
0.0
  0
SPLINE
  5
228
100
AcDbEntity
  8
Layer_1
 62
7
100
AcDbSpline
 70
8
 71
3
 72
8
 73
4
 74
0
 40
0
 40
0
 40
0
 40
0
 40
1
 40
1
 40
1
 40
1
 10
220.147219
 20
36.648503
 30
0.0
 10
220.412804
 20
49.501975
 30
0.0
 10
230.779661
 20
59.869522
 30
0.0
 10
243.633399
 20
60.134698
 30
0.0
  0
LWPOLYLINE
  5
229
100
AcDbEntity
  8
Layer_1
 62
7
100
AcDbPolyline
 90
2
 70
0
 10
244.136108
 20
65.391086
 30
0.0
 10
244.136108
 20
65.391086
 30
0.0
  0
LWPOLYLINE
  5
22a
100
AcDbEntity
  8
Layer_1
 62
7
100
AcDbPolyline
 90
5
 70
0
 10
220.138399
 20
12.148114
 30
0.0
 10
228.137635
 20
12.148114
 30
0.0
 10
228.137635
 20
8.144058
 30
0.0
 10
220.138399
 20
8.144058
 30
0.0
 10
220.138399
 20
12.148114
 30
0.0
  0
LWPOLYLINE
  5
22b
100
AcDbEntity
  8
Layer_1
 62
7
100
AcDbPolyline
 90
5
 70
0
 10
94.141109
 20
96.144814
 30
0.0
 10
98.141109
 20
96.144814
 30
0.0
 10
98.141109
 20
92.144814
 30
0.0
 10
94.141109
 20
92.144814
 30
0.0
 10
94.141109
 20
96.144814
 30
0.0
  0
ENDSEC
  0
SECTION
  2
OBJECTS
  0
DICTIONARY
  5
C
330
0
100
AcDbDictionary
  3
ACAD_GROUP
350
D
  3
ACAD_MLINESTYLE
350
17
  0
DICTIONARY
  5
D
330
C
100
AcDbDictionary
  0
DICTIONARY
  5
1A
330
C
100
AcDbDictionary
  0
DICTIONARY
  5
17
330
C
100
AcDbDictionary
  3
STANDARD
350
18
  0
DICTIONARY
  5
19
330
C
100
AcDbDictionary
  0
ENDSEC
  0
EOF
