  0
SECTION
  2
HEADER
  9
$ACADVER
  1
AC1014
  9
$HANDSEED
  5
FFFF
  9
$MEASUREMENT
 70
     1
  0
ENDSEC
  0
SECTION
  2
TABLES
  0
TABLE
  2
VPORT
  5
8
330
0
100
AcDbSymbolTable
 70
     4
  0
VPORT
  5
2E
330
8
100
AcDbSymbolTableRecord
100
AcDbViewportTableRecord
  2
*ACTIVE
 70
     0
 10
0.0
 20
0.0
 11
1.0
 21
1.0
 12
210.0
 22
148.5
 13
0.0
 23
0.0
 14
10.0
 24
10.0
 15
10.0
 25
10.0
 16
0.0
 26
0.0
 36
1.0
 17
0.0
 27
0.0
 37
0.0
 40
341.0
 41
1.24
 42
50.0
 43
0.0
 44
0.0
 50
0.0
 51
0.0
 71
     0
 72
   100
 73
     1
 74
     3
 75
     0
 76
     0
 77
     0
 78
     0
  0
ENDTAB
  0
TABLE
  2
LTYPE
  5
5
330
0
100
AcDbSymbolTable
 70
     1
  0
LTYPE
  5
14
330
5
100
AcDbSymbolTableRecord
100
AcDbLinetypeTableRecord
  2
BYBLOCK
 70
     0
  3

 72
    65
 73
     0
 40
0.0
  0
LTYPE
  5
15
330
5
100
AcDbSymbolTableRecord
100
AcDbLinetypeTableRecord
  2
BYLAYER
 70
     0
  3

 72
    65
 73
     0
 40
0.0
  0
LTYPE
  5
16
330
5
100
AcDbSymbolTableRecord
100
AcDbLinetypeTableRecord
  2
CONTINUOUS
 70
     0
  3
Solid line
 72
    65
 73
     0
 40
0.0
  0
ENDTAB
  0
TABLE
  2
LAYER
  5
2
100
AcDbSymbolTable
 70
2
  0
LAYER
  5
50
100
AcDbSymbolTableRecord
100
AcDbLayerTableRecord
  2
0
 70
0
  6
CONTINUOUS
  0
LAYER
  5
51
100
AcDbSymbolTableRecord
100
AcDbLayerTableRecord
  2
Layer_1
 70
0
  6
CONTINUOUS
  0
ENDTAB
  0
TABLE
  2
STYLE
  5
3
330
0
100
AcDbSymbolTable
 70
     1
  0
STYLE
  5
11
330
3
100
AcDbSymbolTableRecord
100
AcDbTextStyleTableRecord
  2
STANDARD
 70
     0
 40
0.0
 41
1.0
 50
0.0
 71
     0
 42
2.5
  3
txt
  4

  0
ENDTAB
  0
TABLE
  2
VIEW
  5
6
330
0
100
AcDbSymbolTable
 70
     0
  0
ENDTAB
  0
TABLE
  2
UCS
  5
7
330
0
100
AcDbSymbolTable
 70
     0
  0
ENDTAB
  0
TABLE
  2
APPID
  5
9
330
0
100
AcDbSymbolTable
 70
     2
  0
APPID
  5
12
330
9
100
AcDbSymbolTableRecord
100
AcDbRegAppTableRecord
  2
ACAD
 70
     0
  0
ENDTAB
  0
TABLE
  2
DIMSTYLE
  5
A
330
0
100
AcDbSymbolTable
 70
     1
  0
DIMSTYLE
105
27
330
A
100
AcDbSymbolTableRecord
100
AcDbDimStyleTableRecord
  2
ISO-25
 70
     0
  3

  4

  5

  6

  7

 40
1.0
 41
2.5
 42
0.625
 43
3.75
 44
1.25
 45
0.0
 46
0.0
 47
0.0
 48
0.0
140
2.5
141
2.5
142
0.0
143
0.03937007874016
144
1.0
145
0.0
146
1.0
147
0.625
 71
     0
 72
     0
 73
     0
 74
     0
 75
     0
 76
     0
 77
     1
 78
     8
170
     0
171
     3
172
     1
173
     0
174
     0
175
     0
176
     0
177
     0
178
     0
270
     2
271
     2
272
     2
273
     2
274
     3
340
11
275
     0
280
     0
281
     0
282
     0
283
     0
284
     8
285
     0
286
     0
287
     3
288
     0
  0
ENDTAB
  0
TABLE
  2
BLOCK_RECORD
  5
1
330
0
100
AcDbSymbolTable
 70
     1
  0
BLOCK_RECORD
  5
1F
330
1
100
AcDbSymbolTableRecord
100
AcDbBlockTableRecord
  2
*MODEL_SPACE
  0
BLOCK_RECORD
  5
1B
330
1
100
AcDbSymbolTableRecord
100
AcDbBlockTableRecord
  2
*PAPER_SPACE
  0
ENDTAB
  0
ENDSEC
  0
SECTION
  2
BLOCKS
  0
BLOCK
  5
20
330
1F
100
AcDbEntity
  8
0
100
AcDbBlockBegin
  2
*MODEL_SPACE
 70
     0
 10
0.0
 20
0.0
 30
0.0
  3
*MODEL_SPACE
  1

  0
ENDBLK
  5
21
330
1F
100
AcDbEntity
  8
0
100
AcDbBlockEnd
  0
BLOCK
  5
1C
330
1B
100
AcDbEntity
 67
     1
  8
0
100
AcDbBlockBegin
  2
*PAPER_SPACE
  1

  0
ENDBLK
  5
1D
330
1B
100
AcDbEntity
 67
     1
  8
0
100
AcDbBlockEnd
  0
ENDSEC
  0
SECTION
  2
ENTITIES
  0
SPLINE
  5
100
100
AcDbEntity
  8
Layer_1
 62
7
100
AcDbSpline
 70
8
 71
3
 72
8
 73
4
 74
0
 40
0
 40
0
 40
0
 40
0
 40
1
 40
1
 40
1
 40
1
 10
158.140775
 20
272.144557
 30
0.0
 10
158.140211
 20
293.477890
 30
0.0
 10
158.140493
 20
314.811226
 30
0.0
 10
158.140775
 20
336.144560
 30
0.0
  0
LWPOLYLINE
  5
101
100
AcDbEntity
  8
Layer_1
 62
7
100
AcDbPolyline
 90
35
 70
0
 10
86.141664
 20
400.144838
 30
0.0
 10
86.141664
 20
380.144836
 30
0.0
 10
82.141672
 20
380.144836
 30
0.0
 10
82.141672
 20
368.144837
 30
0.0
 10
86.141664
 20
368.144837
 30
0.0
 10
86.141664
 20
348.144838
 30
0.0
 10
82.141672
 20
348.144838
 30
0.0
 10
82.140826
 20
336.144560
 30
0.0
 10
86.140846
 20
336.144560
 30
0.0
 10
86.140846
 20
272.144557
 30
0.0
 10
82.140826
 20
272.144557
 30
0.0
 10
82.141108
 20
260.144836
 30
0.0
 10
86.141100
 20
260.144836
 30
0.0
 10
86.141100
 20
240.144836
 30
0.0
 10
82.141108
 20
240.144836
 30
0.0
 10
82.141108
 20
228.144835
 30
0.0
 10
86.141100
 20
228.144835
 30
0.0
 10
86.141100
 20
208.144864
 30
0.0
 10
98.140816
 20
208.144581
 30
0.0
 10
98.140816
 20
204.144589
 30
0.0
 10
103.140815
 20
204.144581
 30
0.0
 10
103.140815
 20
208.144581
 30
0.0
 10
141.140798
 20
208.144573
 30
0.0
 10
141.140815
 20
204.144581
 30
0.0
 10
146.140813
 20
204.144589
 30
0.0
 10
146.140813
 20
208.144581
 30
0.0
 10
158.140482
 20
208.144864
 30
0.0
 10
158.140490
 20
228.144835
 30
0.0
 10
162.140491
 20
228.144835
 30
0.0
 10
162.140491
 20
240.144836
 30
0.0
 10
158.140490
 20
240.144836
 30
0.0
 10
158.140490
 20
260.144836
 30
0.0
 10
162.140491
 20
260.144836
 30
0.0
 10
162.140773
 20
272.144557
 30
0.0
 10
158.140775
 20
272.144557
 30
0.0
  0
SPLINE
  5
102
100
AcDbEntity
  8
Layer_1
 62
7
100
AcDbSpline
 70
8
 71
3
 72
8
 73
4
 74
0
 40
0
 40
0
 40
0
 40
0
 40
1
 40
1
 40
1
 40
1
 10
155.141758
 20
213.144839
 30
0.0
 10
155.613162
 20
212.673435
 30
0.0
 10
155.613162
 20
211.616242
 30
0.0
 10
155.141758
 20
211.144838
 30
0.0
  0
SPLINE
  5
103
100
AcDbEntity
  8
Layer_1
 62
7
100
AcDbSpline
 70
8
 71
3
 72
8
 73
4
 74
0
 40
0
 40
0
 40
0
 40
0
 40
1
 40
1
 40
1
 40
1
 10
155.141758
 20
211.144838
 30
0.0
 10
154.670354
 20
210.673434
 30
0.0
 10
153.613163
 20
210.673434
 30
0.0
 10
153.141756
 20
211.144838
 30
0.0
  0
SPLINE
  5
104
100
AcDbEntity
  8
Layer_1
 62
7
100
AcDbSpline
 70
8
 71
3
 72
8
 73
4
 74
0
 40
0
 40
0
 40
0
 40
0
 40
1
 40
1
 40
1
 40
1
 10
153.141756
 20
211.144838
 30
0.0
 10
152.670352
 20
211.616242
 30
0.0
 10
152.670352
 20
212.673435
 30
0.0
 10
153.141756
 20
213.144839
 30
0.0
  0
SPLINE
  5
105
100
AcDbEntity
  8
Layer_1
 62
7
100
AcDbSpline
 70
8
 71
3
 72
8
 73
4
 74
0
 40
0
 40
0
 40
0
 40
0
 40
1
 40
1
 40
1
 40
1
 10
153.141756
 20
213.144839
 30
0.0
 10
153.613163
 20
213.616244
 30
0.0
 10
154.670354
 20
213.616244
 30
0.0
 10
155.141758
 20
213.144839
 30
0.0
  0
LWPOLYLINE
  5
106
100
AcDbEntity
  8
Layer_1
 62
7
100
AcDbPolyline
 90
18
 70
0
 10
158.140775
 20
336.144560
 30
0.0
 10
162.140773
 20
336.144560
 30
0.0
 10
162.140491
 20
348.144838
 30
0.0
 10
158.140490
 20
348.144838
 30
0.0
 10
158.140490
 20
368.144837
 30
0.0
 10
162.140491
 20
368.144837
 30
0.0
 10
162.140491
 20
380.144836
 30
0.0
 10
158.140490
 20
380.144836
 30
0.0
 10
158.140482
 20
400.144838
 30
0.0
 10
146.140813
 20
400.144556
 30
0.0
 10
146.140813
 20
404.144553
 30
0.0
 10
141.140815
 20
404.144559
 30
0.0
 10
141.140798
 20
400.144564
 30
0.0
 10
103.140312
 20
400.144000
 30
0.0
 10
103.140572
 20
404.144277
 30
0.0
 10
98.140788
 20
404.144553
 30
0.0
 10
98.140788
 20
400.144556
 30
0.0
 10
86.141664
 20
400.144838
 30
0.0
  0
SPLINE
  5
107
100
AcDbEntity
  8
Layer_1
 62
7
100
AcDbSpline
 70
8
 71
3
 72
8
 73
4
 74
0
 40
0
 40
0
 40
0
 40
0
 40
1
 40
1
 40
1
 40
1
 10
59.641226
 20
303.644838
 30
0.0
 10
60.348334
 20
302.937731
 30
0.0
 10
60.348334
 20
301.351941
 30
0.0
 10
59.641226
 20
300.644836
 30
0.0
  0
SPLINE
  5
108
100
AcDbEntity
  8
Layer_1
 62
7
100
AcDbSpline
 70
8
 71
3
 72
8
 73
4
 74
0
 40
0
 40
0
 40
0
 40
0
 40
1
 40
1
 40
1
 40
1
 10
59.641226
 20
300.644836
 30
0.0
 10
58.934119
 20
299.937728
 30
0.0
 10
57.348334
 20
299.937728
 30
0.0
 10
56.641227
 20
300.644836
 30
0.0
  0
SPLINE
  5
109
100
AcDbEntity
  8
Layer_1
 62
7
100
AcDbSpline
 70
8
 71
3
 72
8
 73
4
 74
0
 40
0
 40
0
 40
0
 40
0
 40
1
 40
1
 40
1
 40
1
 10
56.641227
 20
300.644836
 30
0.0
 10
55.934119
 20
301.351941
 30
0.0
 10
55.934119
 20
302.937731
 30
0.0
 10
56.641227
 20
303.644838
 30
0.0
  0
SPLINE
  5
10a
100
AcDbEntity
  8
Layer_1
 62
7
100
AcDbSpline
 70
8
 71
3
 72
8
 73
4
 74
0
 40
0
 40
0
 40
0
 40
0
 40
1
 40
1
 40
1
 40
1
 10
56.641227
 20
303.644838
 30
0.0
 10
57.348334
 20
304.351943
 30
0.0
 10
58.934119
 20
304.351943
 30
0.0
 10
59.641226
 20
303.644838
 30
0.0
  0
LWPOLYLINE
  5
10b
100
AcDbEntity
  8
Layer_1
 62
7
100
AcDbPolyline
 90
2
 70
0
 10
155.141758
 20
213.144839
 30
0.0
 10
155.141758
 20
213.144839
 30
0.0
  0
SPLINE
  5
10c
100
AcDbEntity
  8
Layer_1
 62
7
100
AcDbSpline
 70
8
 71
3
 72
8
 73
4
 74
0
 40
0
 40
0
 40
0
 40
0
 40
1
 40
1
 40
1
 40
1
 10
23.641222
 20
303.644838
 30
0.0
 10
24.348330
 20
302.937731
 30
0.0
 10
24.348330
 20
301.351941
 30
0.0
 10
23.641222
 20
300.644836
 30
0.0
  0
SPLINE
  5
10d
100
AcDbEntity
  8
Layer_1
 62
7
100
AcDbSpline
 70
8
 71
3
 72
8
 73
4
 74
0
 40
0
 40
0
 40
0
 40
0
 40
1
 40
1
 40
1
 40
1
 10
23.641222
 20
300.644836
 30
0.0
 10
22.934120
 20
299.937728
 30
0.0
 10
21.348333
 20
299.937728
 30
0.0
 10
20.641226
 20
300.644836
 30
0.0
  0
SPLINE
  5
10e
100
AcDbEntity
  8
Layer_1
 62
7
100
AcDbSpline
 70
8
 71
3
 72
8
 73
4
 74
0
 40
0
 40
0
 40
0
 40
0
 40
1
 40
1
 40
1
 40
1
 10
20.641226
 20
300.644836
 30
0.0
 10
19.934118
 20
301.351941
 30
0.0
 10
19.934118
 20
302.937731
 30
0.0
 10
20.641226
 20
303.644838
 30
0.0
  0
SPLINE
  5
10f
100
AcDbEntity
  8
Layer_1
 62
7
100
AcDbSpline
 70
8
 71
3
 72
8
 73
4
 74
0
 40
0
 40
0
 40
0
 40
0
 40
1
 40
1
 40
1
 40
1
 10
20.641226
 20
303.644838
 30
0.0
 10
21.348333
 20
304.351943
 30
0.0
 10
22.934120
 20
304.351943
 30
0.0
 10
23.641222
 20
303.644838
 30
0.0
  0
LWPOLYLINE
  5
110
100
AcDbEntity
  8
Layer_1
 62
7
100
AcDbPolyline
 90
2
 70
0
 10
59.641226
 20
303.644838
 30
0.0
 10
59.641226
 20
303.644838
 30
0.0
  0
SPLINE
  5
111
100
AcDbEntity
  8
Layer_1
 62
7
100
AcDbSpline
 70
8
 71
3
 72
8
 73
4
 74
0
 40
0
 40
0
 40
0
 40
0
 40
1
 40
1
 40
1
 40
1
 10
23.641222
 20
235.644837
 30
0.0
 10
24.348330
 20
234.937732
 30
0.0
 10
24.348330
 20
233.351945
 30
0.0
 10
23.641222
 20
232.644837
 30
0.0
  0
SPLINE
  5
112
100
AcDbEntity
  8
Layer_1
 62
7
100
AcDbSpline
 70
8
 71
3
 72
8
 73
4
 74
0
 40
0
 40
0
 40
0
 40
0
 40
1
 40
1
 40
1
 40
1
 10
23.641222
 20
232.644837
 30
0.0
 10
22.934120
 20
231.937729
 30
0.0
 10
21.348333
 20
231.937729
 30
0.0
 10
20.641226
 20
232.644837
 30
0.0
  0
SPLINE
  5
113
100
AcDbEntity
  8
Layer_1
 62
7
100
AcDbSpline
 70
8
 71
3
 72
8
 73
4
 74
0
 40
0
 40
0
 40
0
 40
0
 40
1
 40
1
 40
1
 40
1
 10
20.641226
 20
232.644837
 30
0.0
 10
19.934121
 20
233.351945
 30
0.0
 10
19.934121
 20
234.937732
 30
0.0
 10
20.641226
 20
235.644837
 30
0.0
  0
SPLINE
  5
114
100
AcDbEntity
  8
Layer_1
 62
7
100
AcDbSpline
 70
8
 71
3
 72
8
 73
4
 74
0
 40
0
 40
0
 40
0
 40
0
 40
1
 40
1
 40
1
 40
1
 10
20.641226
 20
235.644837
 30
0.0
 10
21.348333
 20
236.351945
 30
0.0
 10
22.934120
 20
236.351945
 30
0.0
 10
23.641222
 20
235.644837
 30
0.0
  0
LWPOLYLINE
  5
115
100
AcDbEntity
  8
Layer_1
 62
7
100
AcDbPolyline
 90
2
 70
0
 10
23.641222
 20
303.644838
 30
0.0
 10
23.641222
 20
303.644838
 30
0.0
  0
SPLINE
  5
116
100
AcDbEntity
  8
Layer_1
 62
7
100
AcDbSpline
 70
8
 71
3
 72
8
 73
4
 74
0
 40
0
 40
0
 40
0
 40
0
 40
1
 40
1
 40
1
 40
1
 10
59.641226
 20
235.644837
 30
0.0
 10
60.348334
 20
234.937732
 30
0.0
 10
60.348334
 20
233.351945
 30
0.0
 10
59.641226
 20
232.644837
 30
0.0
  0
SPLINE
  5
117
100
AcDbEntity
  8
Layer_1
 62
7
100
AcDbSpline
 70
8
 71
3
 72
8
 73
4
 74
0
 40
0
 40
0
 40
0
 40
0
 40
1
 40
1
 40
1
 40
1
 10
59.641226
 20
232.644837
 30
0.0
 10
58.934119
 20
231.937729
 30
0.0
 10
57.348334
 20
231.937729
 30
0.0
 10
56.641227
 20
232.644837
 30
0.0
  0
SPLINE
  5
118
100
AcDbEntity
  8
Layer_1
 62
7
100
AcDbSpline
 70
8
 71
3
 72
8
 73
4
 74
0
 40
0
 40
0
 40
0
 40
0
 40
1
 40
1
 40
1
 40
1
 10
56.641227
 20
232.644837
 30
0.0
 10
55.934119
 20
233.351945
 30
0.0
 10
55.934119
 20
234.937732
 30
0.0
 10
56.641227
 20
235.644837
 30
0.0
  0
SPLINE
  5
119
100
AcDbEntity
  8
Layer_1
 62
7
100
AcDbSpline
 70
8
 71
3
 72
8
 73
4
 74
0
 40
0
 40
0
 40
0
 40
0
 40
1
 40
1
 40
1
 40
1
 10
56.641227
 20
235.644837
 30
0.0
 10
57.348334
 20
236.351945
 30
0.0
 10
58.934119
 20
236.351945
 30
0.0
 10
59.641226
 20
235.644837
 30
0.0
  0
LWPOLYLINE
  5
11a
100
AcDbEntity
  8
Layer_1
 62
7
100
AcDbPolyline
 90
2
 70
0
 10
23.641222
 20
235.644837
 30
0.0
 10
23.641222
 20
235.644837
 30
0.0
  0
SPLINE
  5
11b
100
AcDbEntity
  8
Layer_1
 62
7
100
AcDbSpline
 70
8
 71
3
 72
8
 73
4
 74
0
 40
0
 40
0
 40
0
 40
0
 40
1
 40
1
 40
1
 40
1
 10
23.641222
 20
315.644834
 30
0.0
 10
24.348330
 20
314.937729
 30
0.0
 10
24.348330
 20
313.351942
 30
0.0
 10
23.641222
 20
312.644835
 30
0.0
  0
SPLINE
  5
11c
100
AcDbEntity
  8
Layer_1
 62
7
100
AcDbSpline
 70
8
 71
3
 72
8
 73
4
 74
0
 40
0
 40
0
 40
0
 40
0
 40
1
 40
1
 40
1
 40
1
 10
23.641222
 20
312.644835
 30
0.0
 10
22.934120
 20
311.937730
 30
0.0
 10
21.348333
 20
311.937730
 30
0.0
 10
20.641226
 20
312.644835
 30
0.0
  0
SPLINE
  5
11d
100
AcDbEntity
  8
Layer_1
 62
7
100
AcDbSpline
 70
8
 71
3
 72
8
 73
4
 74
0
 40
0
 40
0
 40
0
 40
0
 40
1
 40
1
 40
1
 40
1
 10
20.641226
 20
312.644835
 30
0.0
 10
19.934121
 20
313.351942
 30
0.0
 10
19.934121
 20
314.937729
 30
0.0
 10
20.641226
 20
315.644834
 30
0.0
  0
SPLINE
  5
11e
100
AcDbEntity
  8
Layer_1
 62
7
100
AcDbSpline
 70
8
 71
3
 72
8
 73
4
 74
0
 40
0
 40
0
 40
0
 40
0
 40
1
 40
1
 40
1
 40
1
 10
20.641226
 20
315.644834
 30
0.0
 10
21.348333
 20
316.351942
 30
0.0
 10
22.934120
 20
316.351942
 30
0.0
 10
23.641222
 20
315.644834
 30
0.0
  0
LWPOLYLINE
  5
11f
100
AcDbEntity
  8
Layer_1
 62
7
100
AcDbPolyline
 90
2
 70
0
 10
59.641226
 20
235.644837
 30
0.0
 10
59.641226
 20
235.644837
 30
0.0
  0
SPLINE
  5
120
100
AcDbEntity
  8
Layer_1
 62
7
100
AcDbSpline
 70
8
 71
3
 72
8
 73
4
 74
0
 40
0
 40
0
 40
0
 40
0
 40
1
 40
1
 40
1
 40
1
 10
59.641226
 20
312.644835
 30
0.0
 10
58.934119
 20
311.937730
 30
0.0
 10
57.348334
 20
311.937730
 30
0.0
 10
56.641227
 20
312.644835
 30
0.0
  0
SPLINE
  5
121
100
AcDbEntity
  8
Layer_1
 62
7
100
AcDbSpline
 70
8
 71
3
 72
8
 73
4
 74
0
 40
0
 40
0
 40
0
 40
0
 40
1
 40
1
 40
1
 40
1
 10
56.641227
 20
312.644835
 30
0.0
 10
55.934119
 20
313.351942
 30
0.0
 10
55.934119
 20
314.937729
 30
0.0
 10
56.641227
 20
315.644834
 30
0.0
  0
SPLINE
  5
122
100
AcDbEntity
  8
Layer_1
 62
7
100
AcDbSpline
 70
8
 71
3
 72
8
 73
4
 74
0
 40
0
 40
0
 40
0
 40
0
 40
1
 40
1
 40
1
 40
1
 10
56.641227
 20
315.644834
 30
0.0
 10
57.348334
 20
316.351942
 30
0.0
 10
58.934119
 20
316.351942
 30
0.0
 10
59.641226
 20
315.644834
 30
0.0
  0
SPLINE
  5
123
100
AcDbEntity
  8
Layer_1
 62
7
100
AcDbSpline
 70
8
 71
3
 72
8
 73
4
 74
0
 40
0
 40
0
 40
0
 40
0
 40
1
 40
1
 40
1
 40
1
 10
59.641226
 20
315.644834
 30
0.0
 10
60.348334
 20
314.937729
 30
0.0
 10
60.348334
 20
313.351942
 30
0.0
 10
59.641226
 20
312.644835
 30
0.0
  0
LWPOLYLINE
  5
124
100
AcDbEntity
  8
Layer_1
 62
7
100
AcDbPolyline
 90
2
 70
0
 10
23.641222
 20
315.644834
 30
0.0
 10
23.641222
 20
315.644834
 30
0.0
  0
SPLINE
  5
125
100
AcDbEntity
  8
Layer_1
 62
7
100
AcDbSpline
 70
8
 71
3
 72
8
 73
4
 74
0
 40
0
 40
0
 40
0
 40
0
 40
1
 40
1
 40
1
 40
1
 10
20.641226
 20
223.644833
 30
0.0
 10
21.348333
 20
224.351940
 30
0.0
 10
22.934120
 20
224.351940
 30
0.0
 10
23.641222
 20
223.644833
 30
0.0
  0
SPLINE
  5
126
100
AcDbEntity
  8
Layer_1
 62
7
100
AcDbSpline
 70
8
 71
3
 72
8
 73
4
 74
0
 40
0
 40
0
 40
0
 40
0
 40
1
 40
1
 40
1
 40
1
 10
23.641222
 20
223.644833
 30
0.0
 10
24.348330
 20
222.937728
 30
0.0
 10
24.348330
 20
221.351941
 30
0.0
 10
23.641222
 20
220.644833
 30
0.0
  0
SPLINE
  5
127
100
AcDbEntity
  8
Layer_1
 62
7
100
AcDbSpline
 70
8
 71
3
 72
8
 73
4
 74
0
 40
0
 40
0
 40
0
 40
0
 40
1
 40
1
 40
1
 40
1
 10
23.641222
 20
220.644833
 30
0.0
 10
22.934120
 20
219.937728
 30
0.0
 10
21.348333
 20
219.937728
 30
0.0
 10
20.641226
 20
220.644833
 30
0.0
  0
SPLINE
  5
128
100
AcDbEntity
  8
Layer_1
 62
7
100
AcDbSpline
 70
8
 71
3
 72
8
 73
4
 74
0
 40
0
 40
0
 40
0
 40
0
 40
1
 40
1
 40
1
 40
1
 10
20.641226
 20
220.644833
 30
0.0
 10
19.934121
 20
221.351941
 30
0.0
 10
19.934121
 20
222.937728
 30
0.0
 10
20.641226
 20
223.644833
 30
0.0
  0
LWPOLYLINE
  5
129
100
AcDbEntity
  8
Layer_1
 62
7
100
AcDbPolyline
 90
2
 70
0
 10
59.641226
 20
312.644835
 30
0.0
 10
59.641226
 20
312.644835
 30
0.0
  0
SPLINE
  5
12a
100
AcDbEntity
  8
Layer_1
 62
7
100
AcDbSpline
 70
8
 71
3
 72
8
 73
4
 74
0
 40
0
 40
0
 40
0
 40
0
 40
1
 40
1
 40
1
 40
1
 10
59.641226
 20
223.644833
 30
0.0
 10
58.934119
 20
224.351940
 30
0.0
 10
57.348334
 20
224.351940
 30
0.0
 10
56.641227
 20
223.644833
 30
0.0
  0
SPLINE
  5
12b
100
AcDbEntity
  8
Layer_1
 62
7
100
AcDbSpline
 70
8
 71
3
 72
8
 73
4
 74
0
 40
0
 40
0
 40
0
 40
0
 40
1
 40
1
 40
1
 40
1
 10
56.641227
 20
223.644833
 30
0.0
 10
55.934119
 20
222.937728
 30
0.0
 10
55.934119
 20
221.351941
 30
0.0
 10
56.641227
 20
220.644833
 30
0.0
  0
SPLINE
  5
12c
100
AcDbEntity
  8
Layer_1
 62
7
100
AcDbSpline
 70
8
 71
3
 72
8
 73
4
 74
0
 40
0
 40
0
 40
0
 40
0
 40
1
 40
1
 40
1
 40
1
 10
56.641227
 20
220.644833
 30
0.0
 10
57.348334
 20
219.937728
 30
0.0
 10
58.934119
 20
219.937728
 30
0.0
 10
59.641226
 20
220.644833
 30
0.0
  0
SPLINE
  5
12d
100
AcDbEntity
  8
Layer_1
 62
7
100
AcDbSpline
 70
8
 71
3
 72
8
 73
4
 74
0
 40
0
 40
0
 40
0
 40
0
 40
1
 40
1
 40
1
 40
1
 10
59.641226
 20
220.644833
 30
0.0
 10
60.348334
 20
221.351941
 30
0.0
 10
60.348334
 20
222.937728
 30
0.0
 10
59.641226
 20
223.644833
 30
0.0
  0
LWPOLYLINE
  5
12e
100
AcDbEntity
  8
Layer_1
 62
7
100
AcDbPolyline
 90
2
 70
0
 10
20.641226
 20
223.644833
 30
0.0
 10
20.641226
 20
223.644833
 30
0.0
  0
LWPOLYLINE
  5
12f
100
AcDbEntity
  8
Layer_1
 62
7
100
AcDbPolyline
 90
2
 70
0
 10
59.641226
 20
223.644833
 30
0.0
 10
59.641226
 20
223.644833
 30
0.0
  0
LWPOLYLINE
  5
130
100
AcDbEntity
  8
Layer_1
 62
7
100
AcDbPolyline
 90
5
 70
0
 10
64.141130
 20
228.144840
 30
0.0
 10
16.141127
 20
228.144840
 30
0.0
 10
16.141127
 20
308.144844
 30
0.0
 10
64.141130
 20
308.144844
 30
0.0
 10
64.141130
 20
228.144840
 30
0.0
  0
SPLINE
  5
131
100
AcDbEntity
  8
Layer_1
 62
7
100
AcDbSpline
 70
8
 71
3
 72
8
 73
4
 74
0
 40
0
 40
0
 40
0
 40
0
 40
1
 40
1
 40
1
 40
1
 10
32.141228
 20
204.144832
 30
0.0
 10
32.141510
 20
205.623355
 30
0.0
 10
32.141036
 20
210.705260
 30
0.0
 10
32.141202
 20
212.144833
 30
0.0
  0
LWPOLYLINE
  5
132
100
AcDbEntity
  8
Layer_1
 62
7
100
AcDbPolyline
 90
21
 70
0
 10
4.141120
 20
400.144832
 30
0.0
 10
4.141120
 20
380.144833
 30
0.0
 10
0.141128
 20
380.144833
 30
0.0
 10
0.141128
 20
368.144831
 30
0.0
 10
4.141120
 20
368.144831
 30
0.0
 10
4.141120
 20
320.144830
 30
0.0
 10
0.141128
 20
320.144830
 30
0.0
 10
0.141128
 20
312.144830
 30
0.0
 10
8.141205
 20
312.144836
 30
0.0
 10
8.141205
 20
296.144834
 30
0.0
 10
0.141128
 20
296.144828
 30
0.0
 10
0.141128
 20
288.144830
 30
0.0
 10
4.141120
 20
288.144830
 30
0.0
 10
4.141120
 20
240.144831
 30
0.0
 10
0.141128
 20
240.144831
 30
0.0
 10
0.141128
 20
228.144829
 30
0.0
 10
4.141120
 20
228.144829
 30
0.0
 10
4.141120
 20
208.144827
 30
0.0
 10
24.141238
 20
208.144852
 30
0.0
 10
24.141238
 20
204.144832
 30
0.0
 10
32.141228
 20
204.144832
 30
0.0
  0
LWPOLYLINE
  5
133
100
AcDbEntity
  8
Layer_1
 62
7
100
AcDbPolyline
 90
32
 70
0
 10
32.141202
 20
212.144833
 30
0.0
 10
48.141204
 20
212.144833
 30
0.0
 10
48.141227
 20
204.144832
 30
0.0
 10
56.141228
 20
204.144812
 30
0.0
 10
56.141228
 20
208.144832
 30
0.0
 10
76.141109
 20
208.144827
 30
0.0
 10
76.141109
 20
228.144829
 30
0.0
 10
80.141129
 20
228.144829
 30
0.0
 10
80.141129
 20
240.144831
 30
0.0
 10
76.141109
 20
240.144831
 30
0.0
 10
76.141109
 20
288.144830
 30
0.0
 10
80.141101
 20
288.144830
 30
0.0
 10
80.141101
 20
296.144828
 30
0.0
 10
72.141204
 20
296.144831
 30
0.0
 10
72.141204
 20
312.144833
 30
0.0
 10
80.141101
 20
312.144830
 30
0.0
 10
80.141101
 20
320.144830
 30
0.0
 10
76.141109
 20
320.144830
 30
0.0
 10
76.141109
 20
368.144831
 30
0.0
 10
80.141129
 20
368.144831
 30
0.0
 10
80.141129
 20
380.144833
 30
0.0
 10
76.141109
 20
380.144833
 30
0.0
 10
76.141109
 20
400.144832
 30
0.0
 10
56.141228
 20
400.144835
 30
0.0
 10
56.141228
 20
404.144836
 30
0.0
 10
48.141227
 20
404.144855
 30
0.0
 10
48.141204
 20
396.144835
 30
0.0
 10
32.141202
 20
396.144835
 30
0.0
 10
32.141228
 20
404.144855
 30
0.0
 10
24.141238
 20
404.144855
 30
0.0
 10
24.141238
 20
400.144855
 30
0.0
 10
4.141120
 20
400.144832
 30
0.0
  0
LWPOLYLINE
  5
134
100
AcDbEntity
  8
Layer_1
 62
7
100
AcDbPolyline
 90
17
 70
0
 10
61.641107
 20
152.144916
 30
0.0
 10
61.526925
 20
151.570933
 30
0.0
 10
61.201768
 20
151.084269
 30
0.0
 10
60.715133
 20
150.759092
 30
0.0
 10
60.141107
 20
150.644905
 30
0.0
 10
59.567081
 20
150.759092
 30
0.0
 10
59.080448
 20
151.084269
 30
0.0
 10
58.755288
 20
151.570933
 30
0.0
 10
58.641107
 20
152.144916
 30
0.0
 10
58.755288
 20
152.718928
 30
0.0
 10
59.080448
 20
153.205564
 30
0.0
 10
59.567081
 20
153.530740
 30
0.0
 10
60.141107
 20
153.644927
 30
0.0
 10
60.715133
 20
153.530740
 30
0.0
 10
61.201768
 20
153.205564
 30
0.0
 10
61.526925
 20
152.718928
 30
0.0
 10
61.641107
 20
152.144916
 30
0.0
  0
LWPOLYLINE
  5
135
100
AcDbEntity
  8
Layer_1
 62
7
100
AcDbPolyline
 90
17
 70
0
 10
141.641105
 20
152.144916
 30
0.0
 10
141.526923
 20
151.570933
 30
0.0
 10
141.201767
 20
151.084269
 30
0.0
 10
140.715131
 20
150.759092
 30
0.0
 10
140.141105
 20
150.644905
 30
0.0
 10
139.567079
 20
150.759092
 30
0.0
 10
139.080446
 20
151.084269
 30
0.0
 10
138.755287
 20
151.570933
 30
0.0
 10
138.641105
 20
152.144916
 30
0.0
 10
138.755287
 20
152.718928
 30
0.0
 10
139.080446
 20
153.205564
 30
0.0
 10
139.567079
 20
153.530740
 30
0.0
 10
140.141105
 20
153.644927
 30
0.0
 10
140.715131
 20
153.530740
 30
0.0
 10
141.201767
 20
153.205564
 30
0.0
 10
141.526923
 20
152.718928
 30
0.0
 10
141.641105
 20
152.144916
 30
0.0
  0
LWPOLYLINE
  5
136
100
AcDbEntity
  8
Layer_1
 62
7
100
AcDbPolyline
 90
5
 70
0
 10
188.141105
 20
108.144886
 30
0.0
 10
192.141097
 20
108.144886
 30
0.0
 10
192.141097
 20
104.144894
 30
0.0
 10
188.141105
 20
104.144894
 30
0.0
 10
188.141105
 20
108.144886
 30
0.0
  0
LWPOLYLINE
  5
137
100
AcDbEntity
  8
Layer_1
 62
7
100
AcDbPolyline
 90
5
 70
0
 10
8.141114
 20
108.144886
 30
0.0
 10
12.141106
 20
108.144886
 30
0.0
 10
12.141106
 20
104.144894
 30
0.0
 10
8.141114
 20
104.144894
 30
0.0
 10
8.141114
 20
108.144886
 30
0.0
  0
LWPOLYLINE
  5
138
100
AcDbEntity
  8
Layer_1
 62
7
100
AcDbPolyline
 90
5
 70
0
 10
164.141099
 20
172.144831
 30
0.0
 10
176.141098
 20
172.144831
 30
0.0
 10
176.141098
 20
168.144839
 30
0.0
 10
164.141099
 20
168.144839
 30
0.0
 10
164.141099
 20
172.144831
 30
0.0
  0
LWPOLYLINE
  5
139
100
AcDbEntity
  8
Layer_1
 62
7
100
AcDbPolyline
 90
5
 70
0
 10
108.146808
 20
172.144775
 30
0.0
 10
108.146808
 20
168.144783
 30
0.0
 10
116.146809
 20
168.144783
 30
0.0
 10
116.146809
 20
172.144775
 30
0.0
 10
108.146808
 20
172.144775
 30
0.0
  0
LWPOLYLINE
  5
13a
100
AcDbEntity
  8
Layer_1
 62
7
100
AcDbPolyline
 90
5
 70
0
 10
84.141101
 20
168.144811
 30
0.0
 10
84.141101
 20
172.144803
 30
0.0
 10
92.141099
 20
172.144803
 30
0.0
 10
92.141099
 20
168.144811
 30
0.0
 10
84.141101
 20
168.144811
 30
0.0
  0
LWPOLYLINE
  5
13b
100
AcDbEntity
  8
Layer_1
 62
7
100
AcDbPolyline
 90
5
 70
0
 10
24.141101
 20
172.144831
 30
0.0
 10
36.141098
 20
172.144831
 30
0.0
 10
36.141098
 20
168.144839
 30
0.0
 10
24.141101
 20
168.144839
 30
0.0
 10
24.141101
 20
172.144831
 30
0.0
  0
LWPOLYLINE
  5
13c
100
AcDbEntity
  8
Layer_1
 62
7
100
AcDbPolyline
 90
5
 70
0
 10
164.141099
 20
112.144850
 30
0.0
 10
176.141098
 20
112.144850
 30
0.0
 10
176.141098
 20
108.144829
 30
0.0
 10
164.141099
 20
108.144829
 30
0.0
 10
164.141099
 20
112.144850
 30
0.0
  0
LWPOLYLINE
  5
13d
100
AcDbEntity
  8
Layer_1
 62
7
100
AcDbPolyline
 90
5
 70
0
 10
132.141107
 20
112.144934
 30
0.0
 10
132.141107
 20
108.144914
 30
0.0
 10
144.141100
 20
108.144829
 30
0.0
 10
144.141100
 20
112.144850
 30
0.0
 10
132.141107
 20
112.144934
 30
0.0
  0
LWPOLYLINE
  5
13e
100
AcDbEntity
  8
Layer_1
 62
7
100
AcDbPolyline
 90
5
 70
0
 10
56.141098
 20
112.144850
 30
0.0
 10
56.141098
 20
108.144829
 30
0.0
 10
68.141105
 20
108.144914
 30
0.0
 10
68.141105
 20
112.144934
 30
0.0
 10
56.141098
 20
112.144850
 30
0.0
  0
LWPOLYLINE
  5
13f
100
AcDbEntity
  8
Layer_1
 62
7
100
AcDbPolyline
 90
5
 70
0
 10
24.141101
 20
108.144829
 30
0.0
 10
24.141101
 20
112.144850
 30
0.0
 10
36.141098
 20
112.144850
 30
0.0
 10
36.141098
 20
108.144829
 30
0.0
 10
24.141101
 20
108.144829
 30
0.0
  0
SPLINE
  5
140
100
AcDbEntity
  8
Layer_1
 62
7
100
AcDbSpline
 70
8
 71
3
 72
8
 73
4
 74
0
 40
0
 40
0
 40
0
 40
0
 40
1
 40
1
 40
1
 40
1
 10
0.141109
 20
128.144834
 30
0.0
 10
0.141109
 20
122.759668
 30
0.0
 10
0.141109
 20
111.989458
 30
0.0
 10
0.141109
 20
111.989458
 30
0.0
  0
LWPOLYLINE
  5
141
100
AcDbEntity
  8
Layer_1
 62
7
100
AcDbPolyline
 90
11
 70
0
 10
4.141106
 20
200.144888
 30
0.0
 10
4.141106
 20
192.144904
 30
0.0
 10
0.141106
 20
192.144904
 30
0.0
 10
0.141106
 20
180.144900
 30
0.0
 10
4.141106
 20
180.144900
 30
0.0
 10
4.141109
 20
168.144783
 30
0.0
 10
0.141109
 20
168.144783
 30
0.0
 10
0.141109
 20
152.144815
 30
0.0
 10
4.141101
 20
152.144815
 30
0.0
 10
4.141101
 20
128.144834
 30
0.0
 10
0.141109
 20
128.144834
 30
0.0
  0
SPLINE
  5
142
100
AcDbEntity
  8
Layer_1
 62
7
100
AcDbSpline
 70
8
 71
3
 72
8
 73
4
 74
0
 40
0
 40
0
 40
0
 40
0
 40
1
 40
1
 40
1
 40
1
 10
200.141109
 20
112.166270
 30
0.0
 10
200.141109
 20
112.166270
 30
0.0
 10
200.141070
 20
122.818652
 30
0.0
 10
200.141070
 20
128.144863
 30
0.0
  0
LWPOLYLINE
  5
143
100
AcDbEntity
  8
Layer_1
 62
7
100
AcDbPolyline
 90
6
 70
0
 10
0.141109
 20
111.989458
 30
0.0
 10
4.141109
 20
112.144821
 30
0.0
 10
4.141109
 20
100.144817
 30
0.0
 10
196.141109
 20
100.144817
 30
0.0
 10
196.141148
 20
112.144821
 30
0.0
 10
200.141109
 20
112.166270
 30
0.0
  0
LWPOLYLINE
  5
144
100
AcDbEntity
  8
Layer_1
 62
7
100
AcDbPolyline
 90
12
 70
0
 10
200.141070
 20
128.144863
 30
0.0
 10
196.141049
 20
128.144863
 30
0.0
 10
196.141049
 20
152.144843
 30
0.0
 10
200.141070
 20
152.144843
 30
0.0
 10
200.141120
 20
168.144867
 30
0.0
 10
196.141120
 20
168.144867
 30
0.0
 10
196.141106
 20
180.144928
 30
0.0
 10
200.141106
 20
180.144928
 30
0.0
 10
200.141106
 20
192.144904
 30
0.0
 10
196.141106
 20
192.144904
 30
0.0
 10
196.141106
 20
200.144888
 30
0.0
 10
4.141106
 20
200.144888
 30
0.0
  0
LWPOLYLINE
  5
145
100
AcDbEntity
  8
Layer_1
 62
7
100
AcDbPolyline
 90
5
 70
0
 10
192.141105
 20
172.144888
 30
0.0
 10
188.141113
 20
172.144888
 30
0.0
 10
188.141113
 20
176.144908
 30
0.0
 10
192.141105
 20
176.144908
 30
0.0
 10
192.141105
 20
172.144888
 30
0.0
  0
LWPOLYLINE
  5
146
100
AcDbEntity
  8
Layer_1
 62
7
100
AcDbPolyline
 90
5
 70
0
 10
188.141094
 20
196.144904
 30
0.0
 10
192.141086
 20
196.144904
 30
0.0
 10
192.141086
 20
192.144884
 30
0.0
 10
188.141094
 20
192.144884
 30
0.0
 10
188.141094
 20
196.144904
 30
0.0
  0
LWPOLYLINE
  5
147
100
AcDbEntity
  8
Layer_1
 62
7
100
AcDbPolyline
 90
5
 70
0
 10
8.141127
 20
172.144888
 30
0.0
 10
12.141128
 20
172.144888
 30
0.0
 10
12.141128
 20
176.144908
 30
0.0
 10
8.141127
 20
176.144908
 30
0.0
 10
8.141127
 20
172.144888
 30
0.0
  0
LWPOLYLINE
  5
148
100
AcDbEntity
  8
Layer_1
 62
7
100
AcDbPolyline
 90
5
 70
0
 10
8.141106
 20
192.144884
 30
0.0
 10
12.141107
 20
192.144884
 30
0.0
 10
12.141107
 20
196.144904
 30
0.0
 10
8.141106
 20
196.144904
 30
0.0
 10
8.141106
 20
192.144884
 30
0.0
  0
LWPOLYLINE
  5
149
100
AcDbEntity
  8
Layer_1
 62
7
100
AcDbPolyline
 90
5
 70
0
 10
208.141113
 20
192.144788
 30
0.0
 10
212.141105
 20
192.144788
 30
0.0
 10
212.141105
 20
196.144752
 30
0.0
 10
208.141113
 20
196.144752
 30
0.0
 10
208.141113
 20
192.144788
 30
0.0
  0
LWPOLYLINE
  5
14a
100
AcDbEntity
  8
Layer_1
 62
7
100
AcDbPolyline
 90
5
 70
0
 10
208.141096
 20
172.144857
 30
0.0
 10
212.141088
 20
172.144857
 30
0.0
 10
212.141088
 20
176.144849
 30
0.0
 10
208.141096
 20
176.144849
 30
0.0
 10
208.141096
 20
172.144857
 30
0.0
  0
LWPOLYLINE
  5
14b
100
AcDbEntity
  8
Layer_1
 62
7
100
AcDbPolyline
 90
5
 70
0
 10
260.141113
 20
192.144788
 30
0.0
 10
264.141105
 20
192.144788
 30
0.0
 10
264.141105
 20
196.144752
 30
0.0
 10
260.141113
 20
196.144752
 30
0.0
 10
260.141113
 20
192.144788
 30
0.0
  0
LWPOLYLINE
  5
14c
100
AcDbEntity
  8
Layer_1
 62
7
100
AcDbPolyline
 90
5
 70
0
 10
260.341070
 20
172.344839
 30
0.0
 10
260.341070
 20
176.344831
 30
0.0
 10
264.341062
 20
176.344831
 30
0.0
 10
264.341062
 20
172.344839
 30
0.0
 10
260.341070
 20
172.344839
 30
0.0
  0
LWPOLYLINE
  5
14d
100
AcDbEntity
  8
Layer_1
 62
7
100
AcDbPolyline
 90
15
 70
0
 10
276.141109
 20
100.144730
 30
0.0
 10
276.141109
 20
112.144734
 30
0.0
 10
272.141089
 20
112.144706
 30
0.0
 10
272.141089
 20
128.144730
 30
0.0
 10
276.141109
 20
128.144730
 30
0.0
 10
276.141109
 20
152.144767
 30
0.0
 10
272.141089
 20
152.144767
 30
0.0
 10
272.141089
 20
168.144752
 30
0.0
 10
276.141109
 20
168.144752
 30
0.0
 10
276.141109
 20
180.144841
 30
0.0
 10
272.141089
 20
180.144841
 30
0.0
 10
272.141089
 20
192.144817
 30
0.0
 10
276.141109
 20
192.144817
 30
0.0
 10
276.141109
 20
200.144829
 30
0.0
 10
196.141109
 20
200.144829
 30
0.0
  0
LWPOLYLINE
  5
14e
100
AcDbEntity
  8
Layer_1
 62
7
100
AcDbPolyline
 90
5
 70
0
 10
212.141113
 20
108.144742
 30
0.0
 10
212.141113
 20
112.144734
 30
0.0
 10
217.141112
 20
112.144734
 30
0.0
 10
217.141112
 20
108.144742
 30
0.0
 10
212.141113
 20
108.144742
 30
0.0
  0
LWPOLYLINE
  5
14f
100
AcDbEntity
  8
Layer_1
 62
7
100
AcDbPolyline
 90
5
 70
0
 10
255.141112
 20
108.144742
 30
0.0
 10
255.141112
 20
112.144734
 30
0.0
 10
260.141113
 20
112.144734
 30
0.0
 10
260.141113
 20
108.144742
 30
0.0
 10
255.141112
 20
108.144742
 30
0.0
  0
LWPOLYLINE
  5
150
100
AcDbEntity
  8
Layer_1
 62
7
100
AcDbPolyline
 90
5
 70
0
 10
252.141093
 20
168.144836
 30
0.0
 10
252.141093
 20
172.144828
 30
0.0
 10
244.141094
 20
172.144828
 30
0.0
 10
244.141094
 20
168.144836
 30
0.0
 10
252.141093
 20
168.144836
 30
0.0
  0
LWPOLYLINE
  5
151
100
AcDbEntity
  8
Layer_1
 62
7
100
AcDbPolyline
 90
5
 70
0
 10
228.141095
 20
168.144836
 30
0.0
 10
228.141095
 20
172.144828
 30
0.0
 10
220.141120
 20
172.144828
 30
0.0
 10
220.141120
 20
168.144836
 30
0.0
 10
228.141095
 20
168.144836
 30
0.0
  0
LWPOLYLINE
  5
152
100
AcDbEntity
  8
Layer_1
 62
7
100
AcDbPolyline
 90
5
 70
0
 10
266.141096
 20
104.144722
 30
0.0
 10
270.141113
 20
104.144722
 30
0.0
 10
270.141113
 20
108.144714
 30
0.0
 10
266.141096
 20
108.144714
 30
0.0
 10
266.141096
 20
104.144722
 30
0.0
  0
LWPOLYLINE
  5
153
100
AcDbEntity
  8
Layer_1
 62
7
100
AcDbPolyline
 90
5
 70
0
 10
202.141114
 20
104.144722
 30
0.0
 10
206.141125
 20
104.144722
 30
0.0
 10
206.141125
 20
108.144714
 30
0.0
 10
202.141114
 20
108.144714
 30
0.0
 10
202.141114
 20
104.144722
 30
0.0
  0
LWPOLYLINE
  5
154
100
AcDbEntity
  8
Layer_1
 62
7
100
AcDbPolyline
 90
17
 70
0
 10
212.141113
 20
153.644778
 30
0.0
 10
212.715125
 20
153.530591
 30
0.0
 10
213.201761
 20
153.205442
 30
0.0
 10
213.526937
 20
152.718807
 30
0.0
 10
213.641124
 20
152.144767
 30
0.0
 10
213.526937
 20
151.570755
 30
0.0
 10
213.201761
 20
151.084119
 30
0.0
 10
212.715125
 20
150.758943
 30
0.0
 10
212.141113
 20
150.644756
 30
0.0
 10
211.567101
 20
150.758943
 30
0.0
 10
211.080466
 20
151.084119
 30
0.0
 10
210.755289
 20
151.570755
 30
0.0
 10
210.641102
 20
152.144767
 30
0.0
 10
210.755289
 20
152.718807
 30
0.0
 10
211.080466
 20
153.205442
 30
0.0
 10
211.567101
 20
153.530591
 30
0.0
 10
212.141113
 20
153.644778
 30
0.0
  0
SPLINE
  5
155
100
AcDbEntity
  8
Layer_1
 62
7
100
AcDbSpline
 70
8
 71
3
 72
8
 73
4
 74
0
 40
0
 40
0
 40
0
 40
0
 40
1
 40
1
 40
1
 40
1
 10
261.526937
 20
151.570755
 30
0.0
 10
261.526937
 20
151.570755
 30
0.0
 10
261.339714
 20
151.222069
 30
0.0
 10
261.201761
 20
151.084119
 30
0.0
  0
SPLINE
  5
156
100
AcDbEntity
  8
Layer_1
 62
7
100
AcDbSpline
 70
8
 71
3
 72
8
 73
4
 74
0
 40
0
 40
0
 40
0
 40
0
 40
1
 40
1
 40
1
 40
1
 10
261.201761
 20
151.084119
 30
0.0
 10
261.063811
 20
150.946141
 30
0.0
 10
260.715125
 20
150.758943
 30
0.0
 10
260.715125
 20
150.758943
 30
0.0
  0
LWPOLYLINE
  5
157
100
AcDbEntity
  8
Layer_1
 62
7
100
AcDbPolyline
 90
6
 70
0
 10
260.141113
 20
153.644778
 30
0.0
 10
260.715125
 20
153.530591
 30
0.0
 10
261.201761
 20
153.205442
 30
0.0
 10
261.526937
 20
152.718807
 30
0.0
 10
261.641124
 20
152.144767
 30
0.0
 10
261.526937
 20
151.570755
 30
0.0
  0
SPLINE
  5
158
100
AcDbEntity
  8
Layer_1
 62
7
100
AcDbSpline
 70
8
 71
3
 72
8
 73
4
 74
0
 40
0
 40
0
 40
0
 40
0
 40
1
 40
1
 40
1
 40
1
 10
192.141083
 20
260.644849
 30
0.0
 10
191.312648
 20
260.644849
 30
0.0
 10
190.641072
 20
261.316422
 30
0.0
 10
190.641072
 20
262.144854
 30
0.0
  0
SPLINE
  5
159
100
AcDbEntity
  8
Layer_1
 62
7
100
AcDbSpline
 70
8
 71
3
 72
8
 73
4
 74
0
 40
0
 40
0
 40
0
 40
0
 40
1
 40
1
 40
1
 40
1
 10
190.641072
 20
262.144854
 30
0.0
 10
190.641072
 20
262.973284
 30
0.0
 10
191.312648
 20
263.644860
 30
0.0
 10
192.141083
 20
263.644860
 30
0.0
  0
SPLINE
  5
15a
100
AcDbEntity
  8
Layer_1
 62
7
100
AcDbSpline
 70
8
 71
3
 72
8
 73
4
 74
0
 40
0
 40
0
 40
0
 40
0
 40
1
 40
1
 40
1
 40
1
 10
192.141083
 20
263.644860
 30
0.0
 10
192.969546
 20
263.644860
 30
0.0
 10
193.641122
 20
262.973284
 30
0.0
 10
193.641122
 20
262.144854
 30
0.0
  0
SPLINE
  5
15b
100
AcDbEntity
  8
Layer_1
 62
7
100
AcDbSpline
 70
8
 71
3
 72
8
 73
4
 74
0
 40
0
 40
0
 40
0
 40
0
 40
1
 40
1
 40
1
 40
1
 10
193.641122
 20
262.144854
 30
0.0
 10
193.641122
 20
261.316422
 30
0.0
 10
192.969546
 20
260.644849
 30
0.0
 10
192.141083
 20
260.644849
 30
0.0
  0
LWPOLYLINE
  5
15c
100
AcDbEntity
  8
Layer_1
 62
7
100
AcDbPolyline
 90
10
 70
0
 10
260.715125
 20
150.758943
 30
0.0
 10
260.141113
 20
150.644756
 30
0.0
 10
259.567101
 20
150.758943
 30
0.0
 10
259.080466
 20
151.084119
 30
0.0
 10
258.755289
 20
151.570755
 30
0.0
 10
258.641102
 20
152.144767
 30
0.0
 10
258.755289
 20
152.718807
 30
0.0
 10
259.080466
 20
153.205442
 30
0.0
 10
259.567101
 20
153.530591
 30
0.0
 10
260.141113
 20
153.644778
 30
0.0
  0
SPLINE
  5
15d
100
AcDbEntity
  8
Layer_1
 62
7
100
AcDbSpline
 70
8
 71
3
 72
8
 73
4
 74
0
 40
0
 40
0
 40
0
 40
0
 40
1
 40
1
 40
1
 40
1
 10
176.141115
 20
202.144867
 30
0.0
 10
186.807783
 20
202.144844
 30
0.0
 10
197.474451
 20
202.144864
 30
0.0
 10
208.141118
 20
202.144867
 30
0.0
  0
LWPOLYLINE
  5
15e
100
AcDbEntity
  8
Layer_1
 62
7
100
AcDbPolyline
 90
2
 70
0
 10
192.141083
 20
260.644849
 30
0.0
 10
192.141083
 20
260.644849
 30
0.0
  0
SPLINE
  5
15f
100
AcDbEntity
  8
Layer_1
 62
7
100
AcDbSpline
 70
8
 71
3
 72
8
 73
4
 74
0
 40
0
 40
0
 40
0
 40
0
 40
1
 40
1
 40
1
 40
1
 10
176.141115
 20
230.144862
 30
0.0
 10
176.140931
 20
220.811530
 30
0.0
 10
176.141044
 20
211.478199
 30
0.0
 10
176.141115
 20
202.144867
 30
0.0
  0
LWPOLYLINE
  5
160
100
AcDbEntity
  8
Layer_1
 62
7
100
AcDbPolyline
 90
13
 70
0
 10
208.141118
 20
202.144867
 30
0.0
 10
224.141109
 20
234.144834
 30
0.0
 10
224.141109
 20
242.127284
 30
0.0
 10
208.141118
 20
274.144848
 30
0.0
 10
176.141115
 20
274.144848
 30
0.0
 10
176.141115
 20
246.144861
 30
0.0
 10
172.141066
 20
246.144861
 30
0.0
 10
172.141066
 20
258.144862
 30
0.0
 10
164.141116
 20
258.144848
 30
0.0
 10
164.141116
 20
218.144844
 30
0.0
 10
172.141066
 20
218.144858
 30
0.0
 10
172.141066
 20
230.144862
 30
0.0
 10
176.141115
 20
230.144862
 30
0.0
  0
SPLINE
  5
161
100
AcDbEntity
  8
Layer_1
 62
7
100
AcDbSpline
 70
8
 71
3
 72
8
 73
4
 74
0
 40
0
 40
0
 40
0
 40
0
 40
1
 40
1
 40
1
 40
1
 10
192.141083
 20
212.644840
 30
0.0
 10
191.312648
 20
212.644840
 30
0.0
 10
190.641072
 20
213.316416
 30
0.0
 10
190.641072
 20
214.144849
 30
0.0
  0
SPLINE
  5
162
100
AcDbEntity
  8
Layer_1
 62
7
100
AcDbSpline
 70
8
 71
3
 72
8
 73
4
 74
0
 40
0
 40
0
 40
0
 40
0
 40
1
 40
1
 40
1
 40
1
 10
190.641072
 20
214.144849
 30
0.0
 10
190.641072
 20
214.973278
 30
0.0
 10
191.312648
 20
215.644854
 30
0.0
 10
192.141083
 20
215.644854
 30
0.0
  0
SPLINE
  5
163
100
AcDbEntity
  8
Layer_1
 62
7
100
AcDbSpline
 70
8
 71
3
 72
8
 73
4
 74
0
 40
0
 40
0
 40
0
 40
0
 40
1
 40
1
 40
1
 40
1
 10
192.141083
 20
215.644854
 30
0.0
 10
192.969546
 20
215.644854
 30
0.0
 10
193.641122
 20
214.973278
 30
0.0
 10
193.641122
 20
214.144849
 30
0.0
  0
SPLINE
  5
164
100
AcDbEntity
  8
Layer_1
 62
7
100
AcDbSpline
 70
8
 71
3
 72
8
 73
4
 74
0
 40
0
 40
0
 40
0
 40
0
 40
1
 40
1
 40
1
 40
1
 10
193.641122
 20
214.144849
 30
0.0
 10
193.641122
 20
213.316416
 30
0.0
 10
192.969546
 20
212.644840
 30
0.0
 10
192.141083
 20
212.644840
 30
0.0
  0
LWPOLYLINE
  5
165
100
AcDbEntity
  8
Layer_1
 62
7
100
AcDbPolyline
 90
2
 70
0
 10
176.141115
 20
202.144867
 30
0.0
 10
176.141115
 20
202.144867
 30
0.0
  0
SPLINE
  5
166
100
AcDbEntity
  8
Layer_1
 62
7
100
AcDbSpline
 70
8
 71
3
 72
8
 73
4
 74
0
 40
0
 40
0
 40
0
 40
0
 40
1
 40
1
 40
1
 40
1
 10
266.641092
 20
376.144911
 30
0.0
 10
266.641092
 20
376.973346
 30
0.0
 10
267.312724
 20
377.644925
 30
0.0
 10
268.141131
 20
377.644925
 30
0.0
  0
SPLINE
  5
167
100
AcDbEntity
  8
Layer_1
 62
7
100
AcDbSpline
 70
8
 71
3
 72
8
 73
4
 74
0
 40
0
 40
0
 40
0
 40
0
 40
1
 40
1
 40
1
 40
1
 10
268.141131
 20
377.644925
 30
0.0
 10
268.969566
 20
377.644925
 30
0.0
 10
269.641145
 20
376.973349
 30
0.0
 10
269.641145
 20
376.144911
 30
0.0
  0
SPLINE
  5
168
100
AcDbEntity
  8
Layer_1
 62
7
100
AcDbSpline
 70
8
 71
3
 72
8
 73
4
 74
0
 40
0
 40
0
 40
0
 40
0
 40
1
 40
1
 40
1
 40
1
 10
269.641145
 20
376.144911
 30
0.0
 10
269.641145
 20
375.316448
 30
0.0
 10
268.969569
 20
374.644872
 30
0.0
 10
268.141131
 20
374.644872
 30
0.0
  0
SPLINE
  5
169
100
AcDbEntity
  8
Layer_1
 62
7
100
AcDbSpline
 70
8
 71
3
 72
8
 73
4
 74
0
 40
0
 40
0
 40
0
 40
0
 40
1
 40
1
 40
1
 40
1
 10
268.141131
 20
374.644872
 30
0.0
 10
267.312668
 20
374.644872
 30
0.0
 10
266.641092
 20
375.316448
 30
0.0
 10
266.641092
 20
376.144911
 30
0.0
  0
LWPOLYLINE
  5
16a
100
AcDbEntity
  8
Layer_1
 62
7
100
AcDbPolyline
 90
2
 70
0
 10
192.141083
 20
212.644840
 30
0.0
 10
192.141083
 20
212.644840
 30
0.0
  0
LWPOLYLINE
  5
16b
100
AcDbEntity
  8
Layer_1
 62
7
100
AcDbPolyline
 90
2
 70
0
 10
266.641092
 20
376.144911
 30
0.0
 10
266.641092
 20
376.144911
 30
0.0
  0
SPLINE
  5
16c
100
AcDbEntity
  8
Layer_1
 62
7
100
AcDbSpline
 70
8
 71
3
 72
8
 73
4
 74
0
 40
0
 40
0
 40
0
 40
0
 40
1
 40
1
 40
1
 40
1
 10
186.641082
 20
376.144914
 30
0.0
 10
186.641082
 20
376.973346
 30
0.0
 10
187.312658
 20
377.644925
 30
0.0
 10
188.141091
 20
377.644925
 30
0.0
  0
SPLINE
  5
16d
100
AcDbEntity
  8
Layer_1
 62
7
100
AcDbSpline
 70
8
 71
3
 72
8
 73
4
 74
0
 40
0
 40
0
 40
0
 40
0
 40
1
 40
1
 40
1
 40
1
 10
188.141091
 20
377.644925
 30
0.0
 10
188.969520
 20
377.644925
 30
0.0
 10
189.641096
 20
376.973349
 30
0.0
 10
189.641096
 20
376.144914
 30
0.0
  0
SPLINE
  5
16e
100
AcDbEntity
  8
Layer_1
 62
7
100
AcDbSpline
 70
8
 71
3
 72
8
 73
4
 74
0
 40
0
 40
0
 40
0
 40
0
 40
1
 40
1
 40
1
 40
1
 10
189.641096
 20
376.144914
 30
0.0
 10
189.641096
 20
375.316448
 30
0.0
 10
188.969520
 20
374.644872
 30
0.0
 10
188.141091
 20
374.644872
 30
0.0
  0
SPLINE
  5
16f
100
AcDbEntity
  8
Layer_1
 62
7
100
AcDbSpline
 70
8
 71
3
 72
8
 73
4
 74
0
 40
0
 40
0
 40
0
 40
0
 40
1
 40
1
 40
1
 40
1
 10
188.141091
 20
374.644872
 30
0.0
 10
187.312658
 20
374.644872
 30
0.0
 10
186.641082
 20
375.316448
 30
0.0
 10
186.641082
 20
376.144914
 30
0.0
  0
LWPOLYLINE
  5
170
100
AcDbEntity
  8
Layer_1
 62
7
100
AcDbPolyline
 90
15
 70
0
 10
180.141098
 20
360.144839
 30
0.0
 10
224.141109
 20
344.144834
 30
0.0
 10
232.123559
 20
344.144834
 30
0.0
 10
276.141107
 20
360.144836
 30
0.0
 10
276.141107
 20
392.144831
 30
0.0
 10
236.141108
 20
392.144882
 30
0.0
 10
236.141108
 20
396.144897
 30
0.0
 10
248.141103
 20
396.144897
 30
0.0
 10
248.141115
 20
404.144957
 30
0.0
 10
208.141121
 20
404.144957
 30
0.0
 10
208.141110
 20
396.144897
 30
0.0
 10
220.141109
 20
396.144897
 30
0.0
 10
220.141109
 20
392.144882
 30
0.0
 10
180.141098
 20
392.144831
 30
0.0
 10
180.141098
 20
360.144839
 30
0.0
  0
LWPOLYLINE
  5
171
100
AcDbEntity
  8
Layer_1
 62
7
100
AcDbPolyline
 90
2
 70
0
 10
186.641082
 20
376.144914
 30
0.0
 10
186.641082
 20
376.144914
 30
0.0
  0
LWPOLYLINE
  5
172
100
AcDbEntity
  8
Layer_1
 62
7
100
AcDbPolyline
 90
5
 70
0
 10
208.141113
 20
92.144788
 30
0.0
 10
212.141105
 20
92.144788
 30
0.0
 10
212.141105
 20
96.144752
 30
0.0
 10
208.141113
 20
96.144752
 30
0.0
 10
208.141113
 20
92.144788
 30
0.0
  0
LWPOLYLINE
  5
173
100
AcDbEntity
  8
Layer_1
 62
7
100
AcDbPolyline
 90
5
 70
0
 10
208.141096
 20
72.144856
 30
0.0
 10
212.141088
 20
72.144856
 30
0.0
 10
212.141088
 20
76.144848
 30
0.0
 10
208.141096
 20
76.144848
 30
0.0
 10
208.141096
 20
72.144856
 30
0.0
  0
LWPOLYLINE
  5
174
100
AcDbEntity
  8
Layer_1
 62
7
100
AcDbPolyline
 90
5
 70
0
 10
260.141113
 20
92.144788
 30
0.0
 10
264.141105
 20
92.144788
 30
0.0
 10
264.141105
 20
96.144752
 30
0.0
 10
260.141113
 20
96.144752
 30
0.0
 10
260.141113
 20
92.144788
 30
0.0
  0
LWPOLYLINE
  5
175
100
AcDbEntity
  8
Layer_1
 62
7
100
AcDbPolyline
 90
5
 70
0
 10
260.341070
 20
72.344839
 30
0.0
 10
260.341070
 20
76.344831
 30
0.0
 10
264.341062
 20
76.344831
 30
0.0
 10
264.341062
 20
72.344839
 30
0.0
 10
260.341070
 20
72.344839
 30
0.0
  0
LWPOLYLINE
  5
176
100
AcDbEntity
  8
Layer_1
 62
7
100
AcDbPolyline
 90
29
 70
0
 10
196.141109
 20
100.144828
 30
0.0
 10
196.141109
 20
92.144816
 30
0.0
 10
200.141086
 20
91.997750
 30
0.0
 10
200.141086
 20
80.144840
 30
0.0
 10
196.141109
 20
80.144840
 30
0.0
 10
196.141109
 20
68.144751
 30
0.0
 10
200.141086
 20
68.144751
 30
0.0
 10
200.141086
 20
52.144755
 30
0.0
 10
196.141109
 20
52.144755
 30
0.0
 10
196.141109
 20
28.144747
 30
0.0
 10
200.141086
 20
28.144747
 30
0.0
 10
200.141086
 20
12.144748
 30
0.0
 10
196.141109
 20
12.144748
 30
0.0
 10
196.141109
 20
0.144715
 30
0.0
 10
276.141109
 20
0.144715
 30
0.0
 10
276.141109
 20
12.144748
 30
0.0
 10
272.141089
 20
12.144719
 30
0.0
 10
272.141089
 20
28.144747
 30
0.0
 10
276.141109
 20
28.144747
 30
0.0
 10
276.141109
 20
52.144755
 30
0.0
 10
272.141089
 20
52.144755
 30
0.0
 10
272.141089
 20
68.144751
 30
0.0
 10
276.141109
 20
68.144751
 30
0.0
 10
276.141109
 20
80.144840
 30
0.0
 10
272.141089
 20
80.144840
 30
0.0
 10
272.141089
 20
92.144816
 30
0.0
 10
276.141109
 20
92.144816
 30
0.0
 10
276.141109
 20
100.144828
 30
0.0
 10
196.141109
 20
100.144828
 30
0.0
  0
LWPOLYLINE
  5
177
100
AcDbEntity
  8
Layer_1
 62
7
100
AcDbPolyline
 90
5
 70
0
 10
212.141113
 20
8.144756
 30
0.0
 10
212.141113
 20
12.144748
 30
0.0
 10
217.141112
 20
12.144748
 30
0.0
 10
217.141112
 20
8.144756
 30
0.0
 10
212.141113
 20
8.144756
 30
0.0
  0
LWPOLYLINE
  5
178
100
AcDbEntity
  8
Layer_1
 62
7
100
AcDbPolyline
 90
5
 70
0
 10
255.141112
 20
8.144756
 30
0.0
 10
255.141112
 20
12.144748
 30
0.0
 10
260.141113
 20
12.144748
 30
0.0
 10
260.141113
 20
8.144756
 30
0.0
 10
255.141112
 20
8.144756
 30
0.0
  0
LWPOLYLINE
  5
179
100
AcDbEntity
  8
Layer_1
 62
7
100
AcDbPolyline
 90
5
 70
0
 10
252.141093
 20
68.144836
 30
0.0
 10
252.141093
 20
72.144828
 30
0.0
 10
244.141094
 20
72.144828
 30
0.0
 10
244.141094
 20
68.144836
 30
0.0
 10
252.141093
 20
68.144836
 30
0.0
  0
LWPOLYLINE
  5
17a
100
AcDbEntity
  8
Layer_1
 62
7
100
AcDbPolyline
 90
5
 70
0
 10
228.141095
 20
68.144836
 30
0.0
 10
228.141095
 20
72.144828
 30
0.0
 10
220.141120
 20
72.144828
 30
0.0
 10
220.141120
 20
68.144836
 30
0.0
 10
228.141095
 20
68.144836
 30
0.0
  0
LWPOLYLINE
  5
17b
100
AcDbEntity
  8
Layer_1
 62
7
100
AcDbPolyline
 90
5
 70
0
 10
266.141096
 20
4.144707
 30
0.0
 10
270.141113
 20
4.144707
 30
0.0
 10
270.141113
 20
8.144727
 30
0.0
 10
266.141096
 20
8.144727
 30
0.0
 10
266.141096
 20
4.144707
 30
0.0
  0
LWPOLYLINE
  5
17c
100
AcDbEntity
  8
Layer_1
 62
7
100
AcDbPolyline
 90
5
 70
0
 10
202.141114
 20
4.144707
 30
0.0
 10
206.141125
 20
4.144707
 30
0.0
 10
206.141125
 20
8.144727
 30
0.0
 10
202.141114
 20
8.144727
 30
0.0
 10
202.141114
 20
4.144707
 30
0.0
  0
LWPOLYLINE
  5
17d
100
AcDbEntity
  8
Layer_1
 62
7
100
AcDbPolyline
 90
17
 70
0
 10
212.141113
 20
53.644766
 30
0.0
 10
212.715125
 20
53.530579
 30
0.0
 10
213.201761
 20
53.205431
 30
0.0
 10
213.526937
 20
52.718795
 30
0.0
 10
213.641124
 20
52.144755
 30
0.0
 10
213.526937
 20
51.570743
 30
0.0
 10
213.201761
 20
51.084107
 30
0.0
 10
212.715125
 20
50.758931
 30
0.0
 10
212.141113
 20
50.644744
 30
0.0
 10
211.567101
 20
50.758931
 30
0.0
 10
211.080466
 20
51.084107
 30
0.0
 10
210.755289
 20
51.570743
 30
0.0
 10
210.641102
 20
52.144755
 30
0.0
 10
210.755289
 20
52.718795
 30
0.0
 10
211.080466
 20
53.205431
 30
0.0
 10
211.567101
 20
53.530579
 30
0.0
 10
212.141113
 20
53.644766
 30
0.0
  0
SPLINE
  5
17e
100
AcDbEntity
  8
Layer_1
 62
7
100
AcDbSpline
 70
8
 71
3
 72
8
 73
4
 74
0
 40
0
 40
0
 40
0
 40
0
 40
1
 40
1
 40
1
 40
1
 10
188.141074
 20
334.644842
 30
0.0
 10
187.312639
 20
334.644842
 30
0.0
 10
186.641063
 20
335.316418
 30
0.0
 10
186.641063
 20
336.144850
 30
0.0
  0
SPLINE
  5
17f
100
AcDbEntity
  8
Layer_1
 62
7
100
AcDbSpline
 70
8
 71
3
 72
8
 73
4
 74
0
 40
0
 40
0
 40
0
 40
0
 40
1
 40
1
 40
1
 40
1
 10
186.641063
 20
336.144850
 30
0.0
 10
186.641063
 20
336.973280
 30
0.0
 10
187.312639
 20
337.644856
 30
0.0
 10
188.141074
 20
337.644856
 30
0.0
  0
SPLINE
  5
180
100
AcDbEntity
  8
Layer_1
 62
7
100
AcDbSpline
 70
8
 71
3
 72
8
 73
4
 74
0
 40
0
 40
0
 40
0
 40
0
 40
1
 40
1
 40
1
 40
1
 10
188.141074
 20
337.644856
 30
0.0
 10
188.969537
 20
337.644856
 30
0.0
 10
189.641113
 20
336.973280
 30
0.0
 10
189.641113
 20
336.144850
 30
0.0
  0
SPLINE
  5
181
100
AcDbEntity
  8
Layer_1
 62
7
100
AcDbSpline
 70
8
 71
3
 72
8
 73
4
 74
0
 40
0
 40
0
 40
0
 40
0
 40
1
 40
1
 40
1
 40
1
 10
189.641113
 20
336.144850
 30
0.0
 10
189.641113
 20
335.316418
 30
0.0
 10
188.969537
 20
334.644842
 30
0.0
 10
188.141074
 20
334.644842
 30
0.0
  0
LWPOLYLINE
  5
182
100
AcDbEntity
  8
Layer_1
 62
7
100
AcDbPolyline
 90
17
 70
0
 10
260.141113
 20
53.644766
 30
0.0
 10
260.715125
 20
53.530579
 30
0.0
 10
261.201761
 20
53.205431
 30
0.0
 10
261.526937
 20
52.718795
 30
0.0
 10
261.641124
 20
52.144755
 30
0.0
 10
261.526937
 20
51.570743
 30
0.0
 10
261.201761
 20
51.084107
 30
0.0
 10
260.715125
 20
50.758931
 30
0.0
 10
260.141113
 20
50.644744
 30
0.0
 10
259.567101
 20
50.758931
 30
0.0
 10
259.080466
 20
51.084107
 30
0.0
 10
258.755289
 20
51.570743
 30
0.0
 10
258.641102
 20
52.144755
 30
0.0
 10
258.755289
 20
52.718795
 30
0.0
 10
259.080466
 20
53.205431
 30
0.0
 10
259.567101
 20
53.530579
 30
0.0
 10
260.141113
 20
53.644766
 30
0.0
  0
SPLINE
  5
183
100
AcDbEntity
  8
Layer_1
 62
7
100
AcDbSpline
 70
8
 71
3
 72
8
 73
4
 74
0
 40
0
 40
0
 40
0
 40
0
 40
1
 40
1
 40
1
 40
1
 10
172.141106
 20
276.144859
 30
0.0
 10
182.807774
 20
276.144833
 30
0.0
 10
193.474442
 20
276.144856
 30
0.0
 10
204.141110
 20
276.144859
 30
0.0
  0
LWPOLYLINE
  5
184
100
AcDbEntity
  8
Layer_1
 62
7
100
AcDbPolyline
 90
2
 70
0
 10
188.141074
 20
334.644842
 30
0.0
 10
188.141074
 20
334.644842
 30
0.0
  0
SPLINE
  5
185
100
AcDbEntity
  8
Layer_1
 62
7
100
AcDbSpline
 70
8
 71
3
 72
8
 73
4
 74
0
 40
0
 40
0
 40
0
 40
0
 40
1
 40
1
 40
1
 40
1
 10
172.141106
 20
304.144854
 30
0.0
 10
172.140922
 20
294.811522
 30
0.0
 10
172.141035
 20
285.478190
 30
0.0
 10
172.141106
 20
276.144859
 30
0.0
  0
LWPOLYLINE
  5
186
100
AcDbEntity
  8
Layer_1
 62
7
100
AcDbPolyline
 90
13
 70
0
 10
204.141110
 20
276.144859
 30
0.0
 10
220.141109
 20
308.144835
 30
0.0
 10
220.141109
 20
316.127285
 30
0.0
 10
204.141110
 20
348.144843
 30
0.0
 10
172.141106
 20
348.144843
 30
0.0
 10
172.141106
 20
320.144852
 30
0.0
 10
168.141057
 20
320.144852
 30
0.0
 10
168.141057
 20
332.144855
 30
0.0
 10
160.141107
 20
332.144841
 30
0.0
 10
160.141107
 20
292.144835
 30
0.0
 10
168.141057
 20
292.144849
 30
0.0
 10
168.141057
 20
304.144854
 30
0.0
 10
172.141106
 20
304.144854
 30
0.0
  0
SPLINE
  5
187
100
AcDbEntity
  8
Layer_1
 62
7
100
AcDbSpline
 70
8
 71
3
 72
8
 73
4
 74
0
 40
0
 40
0
 40
0
 40
0
 40
1
 40
1
 40
1
 40
1
 10
188.141074
 20
286.644832
 30
0.0
 10
187.312639
 20
286.644832
 30
0.0
 10
186.641063
 20
287.316408
 30
0.0
 10
186.641063
 20
288.144840
 30
0.0
  0
SPLINE
  5
188
100
AcDbEntity
  8
Layer_1
 62
7
100
AcDbSpline
 70
8
 71
3
 72
8
 73
4
 74
0
 40
0
 40
0
 40
0
 40
0
 40
1
 40
1
 40
1
 40
1
 10
186.641063
 20
288.144840
 30
0.0
 10
186.641063
 20
288.973270
 30
0.0
 10
187.312639
 20
289.644846
 30
0.0
 10
188.141074
 20
289.644846
 30
0.0
  0
SPLINE
  5
189
100
AcDbEntity
  8
Layer_1
 62
7
100
AcDbSpline
 70
8
 71
3
 72
8
 73
4
 74
0
 40
0
 40
0
 40
0
 40
0
 40
1
 40
1
 40
1
 40
1
 10
188.141074
 20
289.644846
 30
0.0
 10
188.969537
 20
289.644846
 30
0.0
 10
189.641113
 20
288.973270
 30
0.0
 10
189.641113
 20
288.144840
 30
0.0
  0
SPLINE
  5
18a
100
AcDbEntity
  8
Layer_1
 62
7
100
AcDbSpline
 70
8
 71
3
 72
8
 73
4
 74
0
 40
0
 40
0
 40
0
 40
0
 40
1
 40
1
 40
1
 40
1
 10
189.641113
 20
288.144840
 30
0.0
 10
189.641113
 20
287.316408
 30
0.0
 10
188.969537
 20
286.644832
 30
0.0
 10
188.141074
 20
286.644832
 30
0.0
  0
LWPOLYLINE
  5
18b
100
AcDbEntity
  8
Layer_1
 62
7
100
AcDbPolyline
 90
2
 70
0
 10
172.141106
 20
276.144859
 30
0.0
 10
172.141106
 20
276.144859
 30
0.0
  0
SPLINE
  5
18c
100
AcDbEntity
  8
Layer_1
 62
7
100
AcDbSpline
 70
8
 71
3
 72
8
 73
4
 74
0
 40
0
 40
0
 40
0
 40
0
 40
1
 40
1
 40
1
 40
1
 10
244.141185
 20
241.644847
 30
0.0
 10
244.969620
 20
241.644847
 30
0.0
 10
245.641196
 20
240.973215
 30
0.0
 10
245.641196
 20
240.144808
 30
0.0
  0
SPLINE
  5
18d
100
AcDbEntity
  8
Layer_1
 62
7
100
AcDbSpline
 70
8
 71
3
 72
8
 73
4
 74
0
 40
0
 40
0
 40
0
 40
0
 40
1
 40
1
 40
1
 40
1
 10
245.641196
 20
240.144808
 30
0.0
 10
245.641196
 20
239.316373
 30
0.0
 10
244.969623
 20
238.644794
 30
0.0
 10
244.141185
 20
238.644794
 30
0.0
  0
SPLINE
  5
18e
100
AcDbEntity
  8
Layer_1
 62
7
100
AcDbSpline
 70
8
 71
3
 72
8
 73
4
 74
0
 40
0
 40
0
 40
0
 40
0
 40
1
 40
1
 40
1
 40
1
 10
244.141185
 20
238.644794
 30
0.0
 10
243.312721
 20
238.644794
 30
0.0
 10
242.641145
 20
239.316370
 30
0.0
 10
242.641145
 20
240.144808
 30
0.0
  0
SPLINE
  5
18f
100
AcDbEntity
  8
Layer_1
 62
7
100
AcDbSpline
 70
8
 71
3
 72
8
 73
4
 74
0
 40
0
 40
0
 40
0
 40
0
 40
1
 40
1
 40
1
 40
1
 10
242.641145
 20
240.144808
 30
0.0
 10
242.641145
 20
240.973271
 30
0.0
 10
243.312721
 20
241.644847
 30
0.0
 10
244.141185
 20
241.644847
 30
0.0
  0
LWPOLYLINE
  5
190
100
AcDbEntity
  8
Layer_1
 62
7
100
AcDbPolyline
 90
2
 70
0
 10
188.141074
 20
286.644832
 30
0.0
 10
188.141074
 20
286.644832
 30
0.0
  0
LWPOLYLINE
  5
191
100
AcDbEntity
  8
Layer_1
 62
7
100
AcDbPolyline
 90
2
 70
0
 10
244.141185
 20
241.644847
 30
0.0
 10
244.141185
 20
241.644847
 30
0.0
  0
SPLINE
  5
192
100
AcDbEntity
  8
Layer_1
 62
7
100
AcDbSpline
 70
8
 71
3
 72
8
 73
4
 74
0
 40
0
 40
0
 40
0
 40
0
 40
1
 40
1
 40
1
 40
1
 10
264.141181
 20
300.144834
 30
0.0
 10
264.141181
 20
300.144834
 30
0.0
 10
263.973711
 20
293.281029
 30
0.0
 10
264.141181
 20
288.144830
 30
0.0
  0
LWPOLYLINE
  5
193
100
AcDbEntity
  8
Layer_1
 62
7
100
AcDbPolyline
 90
11
 70
0
 10
228.141112
 20
328.144830
 30
0.0
 10
212.141110
 20
284.127281
 30
0.0
 10
212.141110
 20
276.144832
 30
0.0
 10
228.141109
 20
232.144835
 30
0.0
 10
260.141108
 20
232.144835
 30
0.0
 10
260.141158
 20
272.144831
 30
0.0
 10
264.141181
 20
272.144831
 30
0.0
 10
264.141181
 20
260.144839
 30
0.0
 10
272.141247
 20
260.144827
 30
0.0
 10
272.141247
 20
300.144817
 30
0.0
 10
264.141181
 20
300.144834
 30
0.0
  0
SPLINE
  5
194
100
AcDbEntity
  8
Layer_1
 62
7
100
AcDbSpline
 70
8
 71
3
 72
8
 73
4
 74
0
 40
0
 40
0
 40
0
 40
0
 40
1
 40
1
 40
1
 40
1
 10
244.141188
 20
321.644854
 30
0.0
 10
244.969620
 20
321.644854
 30
0.0
 10
245.641199
 20
320.973278
 30
0.0
 10
245.641199
 20
320.144843
 30
0.0
  0
SPLINE
  5
195
100
AcDbEntity
  8
Layer_1
 62
7
100
AcDbSpline
 70
8
 71
3
 72
8
 73
4
 74
0
 40
0
 40
0
 40
0
 40
0
 40
1
 40
1
 40
1
 40
1
 10
245.641199
 20
320.144843
 30
0.0
 10
245.641196
 20
319.316408
 30
0.0
 10
244.969623
 20
318.644832
 30
0.0
 10
244.141188
 20
318.644832
 30
0.0
  0
SPLINE
  5
196
100
AcDbEntity
  8
Layer_1
 62
7
100
AcDbSpline
 70
8
 71
3
 72
8
 73
4
 74
0
 40
0
 40
0
 40
0
 40
0
 40
1
 40
1
 40
1
 40
1
 10
244.141188
 20
318.644832
 30
0.0
 10
243.312721
 20
318.644832
 30
0.0
 10
242.641145
 20
319.316408
 30
0.0
 10
242.641145
 20
320.144843
 30
0.0
  0
SPLINE
  5
197
100
AcDbEntity
  8
Layer_1
 62
7
100
AcDbSpline
 70
8
 71
3
 72
8
 73
4
 74
0
 40
0
 40
0
 40
0
 40
0
 40
1
 40
1
 40
1
 40
1
 10
242.641145
 20
320.144843
 30
0.0
 10
242.641145
 20
320.973278
 30
0.0
 10
243.312721
 20
321.644854
 30
0.0
 10
244.141188
 20
321.644854
 30
0.0
  0
LWPOLYLINE
  5
198
100
AcDbEntity
  8
Layer_1
 62
7
100
AcDbPolyline
 90
4
 70
0
 10
264.141181
 20
288.144830
 30
0.0
 10
260.141158
 20
288.144830
 30
0.0
 10
260.141108
 20
328.144830
 30
0.0
 10
228.141112
 20
328.144830
 30
0.0
  0
SPLINE
  5
199
100
AcDbEntity
  8
Layer_1
 62
7
100
AcDbSpline
 70
8
 71
3
 72
8
 73
4
 74
0
 40
0
 40
0
 40
0
 40
0
 40
1
 40
1
 40
1
 40
1
 10
102.141105
 20
28.144809
 30
0.0
 10
102.141105
 20
27.040247
 30
0.0
 10
101.245676
 20
26.144813
 30
0.0
 10
100.141106
 20
26.144813
 30
0.0
  0
SPLINE
  5
19a
100
AcDbEntity
  8
Layer_1
 62
7
100
AcDbSpline
 70
8
 71
3
 72
8
 73
4
 74
0
 40
0
 40
0
 40
0
 40
0
 40
1
 40
1
 40
1
 40
1
 10
100.141106
 20
26.144813
 30
0.0
 10
99.036536
 20
26.144813
 30
0.0
 10
98.141104
 20
27.040247
 30
0.0
 10
98.141104
 20
28.144809
 30
0.0
  0
SPLINE
  5
19b
100
AcDbEntity
  8
Layer_1
 62
7
100
AcDbSpline
 70
8
 71
3
 72
8
 73
4
 74
0
 40
0
 40
0
 40
0
 40
0
 40
1
 40
1
 40
1
 40
1
 10
98.141104
 20
28.144809
 30
0.0
 10
98.141104
 20
29.249398
 30
0.0
 10
99.036536
 20
30.144833
 30
0.0
 10
100.141106
 20
30.144833
 30
0.0
  0
SPLINE
  5
19c
100
AcDbEntity
  8
Layer_1
 62
7
100
AcDbSpline
 70
8
 71
3
 72
8
 73
4
 74
0
 40
0
 40
0
 40
0
 40
0
 40
1
 40
1
 40
1
 40
1
 10
100.141106
 20
30.144833
 30
0.0
 10
101.245676
 20
30.144833
 30
0.0
 10
102.141105
 20
29.249398
 30
0.0
 10
102.141105
 20
28.144809
 30
0.0
  0
LWPOLYLINE
  5
19d
100
AcDbEntity
  8
Layer_1
 62
7
100
AcDbPolyline
 90
2
 70
0
 10
244.141188
 20
321.644854
 30
0.0
 10
244.141188
 20
321.644854
 30
0.0
  0
SPLINE
  5
19e
100
AcDbEntity
  8
Layer_1
 62
7
100
AcDbSpline
 70
8
 71
3
 72
8
 73
4
 74
0
 40
0
 40
0
 40
0
 40
0
 40
1
 40
1
 40
1
 40
1
 10
104.141106
 20
16.144833
 30
0.0
 10
104.141106
 20
13.935682
 30
0.0
 10
102.350245
 20
12.144841
 30
0.0
 10
100.141106
 20
12.144841
 30
0.0
  0
SPLINE
  5
19f
100
AcDbEntity
  8
Layer_1
 62
7
100
AcDbSpline
 70
8
 71
3
 72
8
 73
4
 74
0
 40
0
 40
0
 40
0
 40
0
 40
1
 40
1
 40
1
 40
1
 10
100.141106
 20
12.144841
 30
0.0
 10
97.931966
 20
12.144841
 30
0.0
 10
96.141105
 20
13.935682
 30
0.0
 10
96.141105
 20
16.144833
 30
0.0
  0
SPLINE
  5
1a0
100
AcDbEntity
  8
Layer_1
 62
7
100
AcDbSpline
 70
8
 71
3
 72
8
 73
4
 74
0
 40
0
 40
0
 40
0
 40
0
 40
1
 40
1
 40
1
 40
1
 10
96.141105
 20
16.144833
 30
0.0
 10
96.141105
 20
18.353955
 30
0.0
 10
97.931966
 20
20.144825
 30
0.0
 10
100.141106
 20
20.144825
 30
0.0
  0
SPLINE
  5
1a1
100
AcDbEntity
  8
Layer_1
 62
7
100
AcDbSpline
 70
8
 71
3
 72
8
 73
4
 74
0
 40
0
 40
0
 40
0
 40
0
 40
1
 40
1
 40
1
 40
1
 10
100.141106
 20
20.144825
 30
0.0
 10
102.350245
 20
20.144825
 30
0.0
 10
104.141106
 20
18.353955
 30
0.0
 10
104.141106
 20
16.144833
 30
0.0
  0
LWPOLYLINE
  5
1a2
100
AcDbEntity
  8
Layer_1
 62
7
100
AcDbPolyline
 90
2
 70
0
 10
102.141105
 20
28.144809
 30
0.0
 10
102.141105
 20
28.144809
 30
0.0
  0
SPLINE
  5
1a3
100
AcDbEntity
  8
Layer_1
 62
7
100
AcDbSpline
 70
8
 71
3
 72
8
 73
4
 74
0
 40
0
 40
0
 40
0
 40
0
 40
1
 40
1
 40
1
 40
1
 10
120.141105
 20
28.144809
 30
0.0
 10
120.141105
 20
17.099139
 30
0.0
 10
111.186801
 20
8.144820
 30
0.0
 10
100.141106
 20
8.144820
 30
0.0
  0
SPLINE
  5
1a4
100
AcDbEntity
  8
Layer_1
 62
7
100
AcDbSpline
 70
8
 71
3
 72
8
 73
4
 74
0
 40
0
 40
0
 40
0
 40
0
 40
1
 40
1
 40
1
 40
1
 10
100.141106
 20
8.144820
 30
0.0
 10
89.095411
 20
8.144820
 30
0.0
 10
80.141106
 20
17.099139
 30
0.0
 10
80.141106
 20
28.144809
 30
0.0
  0
SPLINE
  5
1a5
100
AcDbEntity
  8
Layer_1
 62
7
100
AcDbSpline
 70
8
 71
3
 72
8
 73
4
 74
0
 40
0
 40
0
 40
0
 40
0
 40
1
 40
1
 40
1
 40
1
 10
80.141106
 20
28.144809
 30
0.0
 10
80.141106
 20
39.190507
 30
0.0
 10
89.095411
 20
48.144825
 30
0.0
 10
100.141106
 20
48.144825
 30
0.0
  0
SPLINE
  5
1a6
100
AcDbEntity
  8
Layer_1
 62
7
100
AcDbSpline
 70
8
 71
3
 72
8
 73
4
 74
0
 40
0
 40
0
 40
0
 40
0
 40
1
 40
1
 40
1
 40
1
 10
100.141106
 20
48.144825
 30
0.0
 10
111.186801
 20
48.144825
 30
0.0
 10
120.141105
 20
39.190507
 30
0.0
 10
120.141105
 20
28.144809
 30
0.0
  0
LWPOLYLINE
  5
1a7
100
AcDbEntity
  8
Layer_1
 62
7
100
AcDbPolyline
 90
2
 70
0
 10
104.141106
 20
16.144833
 30
0.0
 10
104.141106
 20
16.144833
 30
0.0
  0
LWPOLYLINE
  5
1a8
100
AcDbEntity
  8
Layer_1
 62
7
100
AcDbPolyline
 90
2
 70
0
 10
120.141105
 20
28.144809
 30
0.0
 10
120.141105
 20
28.144809
 30
0.0
  0
LWPOLYLINE
  5
1a9
100
AcDbEntity
  8
Layer_1
 62
7
100
AcDbPolyline
 90
2
 70
0
 10
104.141109
 20
37.144847
 30
0.0
 10
96.141108
 20
37.144847
 30
0.0
  0
LWPOLYLINE
  5
1aa
100
AcDbEntity
  8
Layer_1
 62
7
100
AcDbPolyline
 90
2
 70
0
 10
95.141107
 20
39.144843
 30
0.0
 10
105.141107
 20
39.144843
 30
0.0
  0
LWPOLYLINE
  5
1ab
100
AcDbEntity
  8
Layer_1
 62
7
100
AcDbPolyline
 90
2
 70
0
 10
95.141107
 20
41.144839
 30
0.0
 10
105.141107
 20
41.144839
 30
0.0
  0
LWPOLYLINE
  5
1ac
100
AcDbEntity
  8
Layer_1
 62
7
100
AcDbPolyline
 90
2
 70
0
 10
96.141108
 20
43.144863
 30
0.0
 10
104.141109
 20
43.144863
 30
0.0
  0
SPLINE
  5
1ad
100
AcDbEntity
  8
Layer_1
 62
7
100
AcDbSpline
 70
8
 71
3
 72
8
 73
4
 74
0
 40
0
 40
0
 40
0
 40
0
 40
1
 40
1
 40
1
 40
1
 10
102.141105
 20
128.144798
 30
0.0
 10
102.141105
 20
127.040236
 30
0.0
 10
101.245676
 20
126.144802
 30
0.0
 10
100.141106
 20
126.144802
 30
0.0
  0
SPLINE
  5
1ae
100
AcDbEntity
  8
Layer_1
 62
7
100
AcDbSpline
 70
8
 71
3
 72
8
 73
4
 74
0
 40
0
 40
0
 40
0
 40
0
 40
1
 40
1
 40
1
 40
1
 10
100.141106
 20
126.144802
 30
0.0
 10
99.036536
 20
126.144802
 30
0.0
 10
98.141104
 20
127.040236
 30
0.0
 10
98.141104
 20
128.144798
 30
0.0
  0
SPLINE
  5
1af
100
AcDbEntity
  8
Layer_1
 62
7
100
AcDbSpline
 70
8
 71
3
 72
8
 73
4
 74
0
 40
0
 40
0
 40
0
 40
0
 40
1
 40
1
 40
1
 40
1
 10
98.141104
 20
128.144798
 30
0.0
 10
98.141104
 20
129.249387
 30
0.0
 10
99.036536
 20
130.144822
 30
0.0
 10
100.141106
 20
130.144822
 30
0.0
  0
SPLINE
  5
1b0
100
AcDbEntity
  8
Layer_1
 62
7
100
AcDbSpline
 70
8
 71
3
 72
8
 73
4
 74
0
 40
0
 40
0
 40
0
 40
0
 40
1
 40
1
 40
1
 40
1
 10
100.141106
 20
130.144822
 30
0.0
 10
101.245676
 20
130.144822
 30
0.0
 10
102.141105
 20
129.249387
 30
0.0
 10
102.141105
 20
128.144798
 30
0.0
  0
LWPOLYLINE
  5
1b1
100
AcDbEntity
  8
Layer_1
 62
7
100
AcDbPolyline
 90
5
 70
0
 10
108.141110
 20
9.644860
 30
0.0
 10
108.141110
 20
5.644840
 30
0.0
 10
92.141111
 20
5.644840
 30
0.0
 10
92.141111
 20
9.644860
 30
0.0
 10
92.141111
 20
9.644860
 30
0.0
  0
SPLINE
  5
1b2
100
AcDbEntity
  8
Layer_1
 62
7
100
AcDbSpline
 70
8
 71
3
 72
8
 73
4
 74
0
 40
0
 40
0
 40
0
 40
0
 40
1
 40
1
 40
1
 40
1
 10
104.141106
 20
116.144822
 30
0.0
 10
104.141106
 20
113.935671
 30
0.0
 10
102.350245
 20
112.144830
 30
0.0
 10
100.141106
 20
112.144830
 30
0.0
  0
SPLINE
  5
1b3
100
AcDbEntity
  8
Layer_1
 62
7
100
AcDbSpline
 70
8
 71
3
 72
8
 73
4
 74
0
 40
0
 40
0
 40
0
 40
0
 40
1
 40
1
 40
1
 40
1
 10
100.141106
 20
112.144830
 30
0.0
 10
97.931966
 20
112.144830
 30
0.0
 10
96.141105
 20
113.935671
 30
0.0
 10
96.141105
 20
116.144822
 30
0.0
  0
SPLINE
  5
1b4
100
AcDbEntity
  8
Layer_1
 62
7
100
AcDbSpline
 70
8
 71
3
 72
8
 73
4
 74
0
 40
0
 40
0
 40
0
 40
0
 40
1
 40
1
 40
1
 40
1
 10
96.141105
 20
116.144822
 30
0.0
 10
96.141105
 20
118.353944
 30
0.0
 10
97.931966
 20
120.144814
 30
0.0
 10
100.141106
 20
120.144814
 30
0.0
  0
SPLINE
  5
1b5
100
AcDbEntity
  8
Layer_1
 62
7
100
AcDbSpline
 70
8
 71
3
 72
8
 73
4
 74
0
 40
0
 40
0
 40
0
 40
0
 40
1
 40
1
 40
1
 40
1
 10
100.141106
 20
120.144814
 30
0.0
 10
102.350245
 20
120.144814
 30
0.0
 10
104.141106
 20
118.353944
 30
0.0
 10
104.141106
 20
116.144822
 30
0.0
  0
LWPOLYLINE
  5
1b6
100
AcDbEntity
  8
Layer_1
 62
7
100
AcDbPolyline
 90
2
 70
0
 10
102.141105
 20
128.144798
 30
0.0
 10
102.141105
 20
128.144798
 30
0.0
  0
SPLINE
  5
1b7
100
AcDbEntity
  8
Layer_1
 62
7
100
AcDbSpline
 70
8
 71
3
 72
8
 73
4
 74
0
 40
0
 40
0
 40
0
 40
0
 40
1
 40
1
 40
1
 40
1
 10
120.141105
 20
128.144798
 30
0.0
 10
120.141105
 20
117.099128
 30
0.0
 10
111.186801
 20
108.144810
 30
0.0
 10
100.141106
 20
108.144810
 30
0.0
  0
SPLINE
  5
1b8
100
AcDbEntity
  8
Layer_1
 62
7
100
AcDbSpline
 70
8
 71
3
 72
8
 73
4
 74
0
 40
0
 40
0
 40
0
 40
0
 40
1
 40
1
 40
1
 40
1
 10
100.141106
 20
108.144810
 30
0.0
 10
89.095411
 20
108.144810
 30
0.0
 10
80.141106
 20
117.099128
 30
0.0
 10
80.141106
 20
128.144798
 30
0.0
  0
SPLINE
  5
1b9
100
AcDbEntity
  8
Layer_1
 62
7
100
AcDbSpline
 70
8
 71
3
 72
8
 73
4
 74
0
 40
0
 40
0
 40
0
 40
0
 40
1
 40
1
 40
1
 40
1
 10
80.141106
 20
128.144798
 30
0.0
 10
80.141106
 20
139.190496
 30
0.0
 10
89.095411
 20
148.144814
 30
0.0
 10
100.141106
 20
148.144814
 30
0.0
  0
SPLINE
  5
1ba
100
AcDbEntity
  8
Layer_1
 62
7
100
AcDbSpline
 70
8
 71
3
 72
8
 73
4
 74
0
 40
0
 40
0
 40
0
 40
0
 40
1
 40
1
 40
1
 40
1
 10
100.141106
 20
148.144814
 30
0.0
 10
111.186801
 20
148.144814
 30
0.0
 10
120.141105
 20
139.190496
 30
0.0
 10
120.141105
 20
128.144798
 30
0.0
  0
LWPOLYLINE
  5
1bb
100
AcDbEntity
  8
Layer_1
 62
7
100
AcDbPolyline
 90
2
 70
0
 10
104.141106
 20
116.144822
 30
0.0
 10
104.141106
 20
116.144822
 30
0.0
  0
LWPOLYLINE
  5
1bc
100
AcDbEntity
  8
Layer_1
 62
7
100
AcDbPolyline
 90
2
 70
0
 10
120.141105
 20
128.144798
 30
0.0
 10
120.141105
 20
128.144798
 30
0.0
  0
LWPOLYLINE
  5
1bd
100
AcDbEntity
  8
Layer_1
 62
7
100
AcDbPolyline
 90
2
 70
0
 10
104.141109
 20
137.144836
 30
0.0
 10
96.141108
 20
137.144836
 30
0.0
  0
LWPOLYLINE
  5
1be
100
AcDbEntity
  8
Layer_1
 62
7
100
AcDbPolyline
 90
2
 70
0
 10
95.141107
 20
139.144832
 30
0.0
 10
105.141107
 20
139.144832
 30
0.0
  0
LWPOLYLINE
  5
1bf
100
AcDbEntity
  8
Layer_1
 62
7
100
AcDbPolyline
 90
2
 70
0
 10
95.141107
 20
141.144828
 30
0.0
 10
105.141107
 20
141.144828
 30
0.0
  0
LWPOLYLINE
  5
1c0
100
AcDbEntity
  8
Layer_1
 62
7
100
AcDbPolyline
 90
2
 70
0
 10
96.141108
 20
143.144852
 30
0.0
 10
104.141109
 20
143.144852
 30
0.0
  0
SPLINE
  5
1c1
100
AcDbEntity
  8
Layer_1
 62
7
100
AcDbSpline
 70
8
 71
3
 72
8
 73
4
 74
0
 40
0
 40
0
 40
0
 40
0
 40
1
 40
1
 40
1
 40
1
 10
238.141101
 20
128.144798
 30
0.0
 10
238.141101
 20
127.040236
 30
0.0
 10
237.245672
 20
126.144802
 30
0.0
 10
236.141102
 20
126.144802
 30
0.0
  0
SPLINE
  5
1c2
100
AcDbEntity
  8
Layer_1
 62
7
100
AcDbSpline
 70
8
 71
3
 72
8
 73
4
 74
0
 40
0
 40
0
 40
0
 40
0
 40
1
 40
1
 40
1
 40
1
 10
236.141102
 20
126.144802
 30
0.0
 10
235.036532
 20
126.144802
 30
0.0
 10
234.141100
 20
127.040236
 30
0.0
 10
234.141100
 20
128.144798
 30
0.0
  0
SPLINE
  5
1c3
100
AcDbEntity
  8
Layer_1
 62
7
100
AcDbSpline
 70
8
 71
3
 72
8
 73
4
 74
0
 40
0
 40
0
 40
0
 40
0
 40
1
 40
1
 40
1
 40
1
 10
234.141100
 20
128.144798
 30
0.0
 10
234.141100
 20
129.249387
 30
0.0
 10
235.036532
 20
130.144822
 30
0.0
 10
236.141102
 20
130.144822
 30
0.0
  0
SPLINE
  5
1c4
100
AcDbEntity
  8
Layer_1
 62
7
100
AcDbSpline
 70
8
 71
3
 72
8
 73
4
 74
0
 40
0
 40
0
 40
0
 40
0
 40
1
 40
1
 40
1
 40
1
 10
236.141102
 20
130.144822
 30
0.0
 10
237.245672
 20
130.144822
 30
0.0
 10
238.141101
 20
129.249387
 30
0.0
 10
238.141101
 20
128.144798
 30
0.0
  0
LWPOLYLINE
  5
1c5
100
AcDbEntity
  8
Layer_1
 62
7
100
AcDbPolyline
 90
5
 70
0
 10
108.141110
 20
109.644849
 30
0.0
 10
108.141110
 20
105.644829
 30
0.0
 10
92.141111
 20
105.644829
 30
0.0
 10
92.141111
 20
109.644849
 30
0.0
 10
92.141111
 20
109.644849
 30
0.0
  0
SPLINE
  5
1c6
100
AcDbEntity
  8
Layer_1
 62
7
100
AcDbSpline
 70
8
 71
3
 72
8
 73
4
 74
0
 40
0
 40
0
 40
0
 40
0
 40
1
 40
1
 40
1
 40
1
 10
240.141102
 20
116.144822
 30
0.0
 10
240.141102
 20
113.935671
 30
0.0
 10
238.350242
 20
112.144830
 30
0.0
 10
236.141102
 20
112.144830
 30
0.0
  0
SPLINE
  5
1c7
100
AcDbEntity
  8
Layer_1
 62
7
100
AcDbSpline
 70
8
 71
3
 72
8
 73
4
 74
0
 40
0
 40
0
 40
0
 40
0
 40
1
 40
1
 40
1
 40
1
 10
236.141102
 20
112.144830
 30
0.0
 10
233.931962
 20
112.144830
 30
0.0
 10
232.141101
 20
113.935671
 30
0.0
 10
232.141101
 20
116.144822
 30
0.0
  0
SPLINE
  5
1c8
100
AcDbEntity
  8
Layer_1
 62
7
100
AcDbSpline
 70
8
 71
3
 72
8
 73
4
 74
0
 40
0
 40
0
 40
0
 40
0
 40
1
 40
1
 40
1
 40
1
 10
232.141101
 20
116.144822
 30
0.0
 10
232.141101
 20
118.353944
 30
0.0
 10
233.931962
 20
120.144814
 30
0.0
 10
236.141102
 20
120.144814
 30
0.0
  0
SPLINE
  5
1c9
100
AcDbEntity
  8
Layer_1
 62
7
100
AcDbSpline
 70
8
 71
3
 72
8
 73
4
 74
0
 40
0
 40
0
 40
0
 40
0
 40
1
 40
1
 40
1
 40
1
 10
236.141102
 20
120.144814
 30
0.0
 10
238.350242
 20
120.144814
 30
0.0
 10
240.141102
 20
118.353944
 30
0.0
 10
240.141102
 20
116.144822
 30
0.0
  0
LWPOLYLINE
  5
1ca
100
AcDbEntity
  8
Layer_1
 62
7
100
AcDbPolyline
 90
2
 70
0
 10
238.141101
 20
128.144798
 30
0.0
 10
238.141101
 20
128.144798
 30
0.0
  0
SPLINE
  5
1cb
100
AcDbEntity
  8
Layer_1
 62
7
100
AcDbSpline
 70
8
 71
3
 72
8
 73
4
 74
0
 40
0
 40
0
 40
0
 40
0
 40
1
 40
1
 40
1
 40
1
 10
256.141101
 20
128.144798
 30
0.0
 10
256.141101
 20
117.099128
 30
0.0
 10
247.186797
 20
108.144810
 30
0.0
 10
236.141102
 20
108.144810
 30
0.0
  0
SPLINE
  5
1cc
100
AcDbEntity
  8
Layer_1
 62
7
100
AcDbSpline
 70
8
 71
3
 72
8
 73
4
 74
0
 40
0
 40
0
 40
0
 40
0
 40
1
 40
1
 40
1
 40
1
 10
236.141102
 20
108.144810
 30
0.0
 10
225.095407
 20
108.144810
 30
0.0
 10
216.141102
 20
117.099128
 30
0.0
 10
216.141102
 20
128.144798
 30
0.0
  0
SPLINE
  5
1cd
100
AcDbEntity
  8
Layer_1
 62
7
100
AcDbSpline
 70
8
 71
3
 72
8
 73
4
 74
0
 40
0
 40
0
 40
0
 40
0
 40
1
 40
1
 40
1
 40
1
 10
216.141102
 20
128.144798
 30
0.0
 10
216.141102
 20
139.190496
 30
0.0
 10
225.095407
 20
148.144814
 30
0.0
 10
236.141102
 20
148.144814
 30
0.0
  0
SPLINE
  5
1ce
100
AcDbEntity
  8
Layer_1
 62
7
100
AcDbSpline
 70
8
 71
3
 72
8
 73
4
 74
0
 40
0
 40
0
 40
0
 40
0
 40
1
 40
1
 40
1
 40
1
 10
236.141102
 20
148.144814
 30
0.0
 10
247.186797
 20
148.144814
 30
0.0
 10
256.141101
 20
139.190496
 30
0.0
 10
256.141101
 20
128.144798
 30
0.0
  0
LWPOLYLINE
  5
1cf
100
AcDbEntity
  8
Layer_1
 62
7
100
AcDbPolyline
 90
2
 70
0
 10
240.141102
 20
116.144822
 30
0.0
 10
240.141102
 20
116.144822
 30
0.0
  0
LWPOLYLINE
  5
1d0
100
AcDbEntity
  8
Layer_1
 62
7
100
AcDbPolyline
 90
2
 70
0
 10
256.141101
 20
128.144798
 30
0.0
 10
256.141101
 20
128.144798
 30
0.0
  0
LWPOLYLINE
  5
1d1
100
AcDbEntity
  8
Layer_1
 62
7
100
AcDbPolyline
 90
2
 70
0
 10
240.141105
 20
137.144836
 30
0.0
 10
232.141104
 20
137.144836
 30
0.0
  0
LWPOLYLINE
  5
1d2
100
AcDbEntity
  8
Layer_1
 62
7
100
AcDbPolyline
 90
2
 70
0
 10
231.141103
 20
139.144832
 30
0.0
 10
241.141103
 20
139.144832
 30
0.0
  0
LWPOLYLINE
  5
1d3
100
AcDbEntity
  8
Layer_1
 62
7
100
AcDbPolyline
 90
2
 70
0
 10
231.141103
 20
141.144828
 30
0.0
 10
241.141103
 20
141.144828
 30
0.0
  0
LWPOLYLINE
  5
1d4
100
AcDbEntity
  8
Layer_1
 62
7
100
AcDbPolyline
 90
2
 70
0
 10
232.141104
 20
143.144852
 30
0.0
 10
240.141105
 20
143.144852
 30
0.0
  0
SPLINE
  5
1d5
100
AcDbEntity
  8
Layer_1
 62
7
100
AcDbSpline
 70
8
 71
3
 72
8
 73
4
 74
0
 40
0
 40
0
 40
0
 40
0
 40
1
 40
1
 40
1
 40
1
 10
238.141101
 20
28.144800
 30
0.0
 10
238.141101
 20
27.040239
 30
0.0
 10
237.245672
 20
26.144804
 30
0.0
 10
236.141102
 20
26.144804
 30
0.0
  0
SPLINE
  5
1d6
100
AcDbEntity
  8
Layer_1
 62
7
100
AcDbSpline
 70
8
 71
3
 72
8
 73
4
 74
0
 40
0
 40
0
 40
0
 40
0
 40
1
 40
1
 40
1
 40
1
 10
236.141102
 20
26.144804
 30
0.0
 10
235.036532
 20
26.144804
 30
0.0
 10
234.141100
 20
27.040239
 30
0.0
 10
234.141100
 20
28.144800
 30
0.0
  0
SPLINE
  5
1d7
100
AcDbEntity
  8
Layer_1
 62
7
100
AcDbSpline
 70
8
 71
3
 72
8
 73
4
 74
0
 40
0
 40
0
 40
0
 40
0
 40
1
 40
1
 40
1
 40
1
 10
234.141100
 20
28.144800
 30
0.0
 10
234.141100
 20
29.249390
 30
0.0
 10
235.036532
 20
30.144824
 30
0.0
 10
236.141102
 20
30.144824
 30
0.0
  0
SPLINE
  5
1d8
100
AcDbEntity
  8
Layer_1
 62
7
100
AcDbSpline
 70
8
 71
3
 72
8
 73
4
 74
0
 40
0
 40
0
 40
0
 40
0
 40
1
 40
1
 40
1
 40
1
 10
236.141102
 20
30.144824
 30
0.0
 10
237.245672
 20
30.144824
 30
0.0
 10
238.141101
 20
29.249390
 30
0.0
 10
238.141101
 20
28.144800
 30
0.0
  0
LWPOLYLINE
  5
1d9
100
AcDbEntity
  8
Layer_1
 62
7
100
AcDbPolyline
 90
5
 70
0
 10
244.141106
 20
109.644849
 30
0.0
 10
244.141106
 20
105.644829
 30
0.0
 10
228.141107
 20
105.644829
 30
0.0
 10
228.141107
 20
109.644849
 30
0.0
 10
228.141107
 20
109.644849
 30
0.0
  0
SPLINE
  5
1da
100
AcDbEntity
  8
Layer_1
 62
7
100
AcDbSpline
 70
8
 71
3
 72
8
 73
4
 74
0
 40
0
 40
0
 40
0
 40
0
 40
1
 40
1
 40
1
 40
1
 10
240.141102
 20
16.144824
 30
0.0
 10
240.141102
 20
13.935673
 30
0.0
 10
238.350242
 20
12.144832
 30
0.0
 10
236.141102
 20
12.144832
 30
0.0
  0
SPLINE
  5
1db
100
AcDbEntity
  8
Layer_1
 62
7
100
AcDbSpline
 70
8
 71
3
 72
8
 73
4
 74
0
 40
0
 40
0
 40
0
 40
0
 40
1
 40
1
 40
1
 40
1
 10
236.141102
 20
12.144832
 30
0.0
 10
233.931962
 20
12.144832
 30
0.0
 10
232.141101
 20
13.935673
 30
0.0
 10
232.141101
 20
16.144824
 30
0.0
  0
SPLINE
  5
1dc
100
AcDbEntity
  8
Layer_1
 62
7
100
AcDbSpline
 70
8
 71
3
 72
8
 73
4
 74
0
 40
0
 40
0
 40
0
 40
0
 40
1
 40
1
 40
1
 40
1
 10
232.141101
 20
16.144824
 30
0.0
 10
232.141101
 20
18.353947
 30
0.0
 10
233.931962
 20
20.144816
 30
0.0
 10
236.141102
 20
20.144816
 30
0.0
  0
SPLINE
  5
1dd
100
AcDbEntity
  8
Layer_1
 62
7
100
AcDbSpline
 70
8
 71
3
 72
8
 73
4
 74
0
 40
0
 40
0
 40
0
 40
0
 40
1
 40
1
 40
1
 40
1
 10
236.141102
 20
20.144816
 30
0.0
 10
238.350242
 20
20.144816
 30
0.0
 10
240.141102
 20
18.353947
 30
0.0
 10
240.141102
 20
16.144824
 30
0.0
  0
LWPOLYLINE
  5
1de
100
AcDbEntity
  8
Layer_1
 62
7
100
AcDbPolyline
 90
2
 70
0
 10
238.141101
 20
28.144800
 30
0.0
 10
238.141101
 20
28.144800
 30
0.0
  0
SPLINE
  5
1df
100
AcDbEntity
  8
Layer_1
 62
7
100
AcDbSpline
 70
8
 71
3
 72
8
 73
4
 74
0
 40
0
 40
0
 40
0
 40
0
 40
1
 40
1
 40
1
 40
1
 10
256.141101
 20
28.144800
 30
0.0
 10
256.141101
 20
17.099130
 30
0.0
 10
247.186797
 20
8.144812
 30
0.0
 10
236.141102
 20
8.144812
 30
0.0
  0
SPLINE
  5
1e0
100
AcDbEntity
  8
Layer_1
 62
7
100
AcDbSpline
 70
8
 71
3
 72
8
 73
4
 74
0
 40
0
 40
0
 40
0
 40
0
 40
1
 40
1
 40
1
 40
1
 10
236.141102
 20
8.144812
 30
0.0
 10
225.095407
 20
8.144812
 30
0.0
 10
216.141102
 20
17.099130
 30
0.0
 10
216.141102
 20
28.144800
 30
0.0
  0
SPLINE
  5
1e1
100
AcDbEntity
  8
Layer_1
 62
7
100
AcDbSpline
 70
8
 71
3
 72
8
 73
4
 74
0
 40
0
 40
0
 40
0
 40
0
 40
1
 40
1
 40
1
 40
1
 10
216.141102
 20
28.144800
 30
0.0
 10
216.141102
 20
39.190498
 30
0.0
 10
225.095407
 20
48.144817
 30
0.0
 10
236.141102
 20
48.144817
 30
0.0
  0
SPLINE
  5
1e2
100
AcDbEntity
  8
Layer_1
 62
7
100
AcDbSpline
 70
8
 71
3
 72
8
 73
4
 74
0
 40
0
 40
0
 40
0
 40
0
 40
1
 40
1
 40
1
 40
1
 10
236.141102
 20
48.144817
 30
0.0
 10
247.186797
 20
48.144817
 30
0.0
 10
256.141101
 20
39.190498
 30
0.0
 10
256.141101
 20
28.144800
 30
0.0
  0
LWPOLYLINE
  5
1e3
100
AcDbEntity
  8
Layer_1
 62
7
100
AcDbPolyline
 90
2
 70
0
 10
240.141102
 20
16.144824
 30
0.0
 10
240.141102
 20
16.144824
 30
0.0
  0
LWPOLYLINE
  5
1e4
100
AcDbEntity
  8
Layer_1
 62
7
100
AcDbPolyline
 90
2
 70
0
 10
256.141101
 20
28.144800
 30
0.0
 10
256.141101
 20
28.144800
 30
0.0
  0
LWPOLYLINE
  5
1e5
100
AcDbEntity
  8
Layer_1
 62
7
100
AcDbPolyline
 90
2
 70
0
 10
240.141105
 20
37.144839
 30
0.0
 10
232.141104
 20
37.144839
 30
0.0
  0
LWPOLYLINE
  5
1e6
100
AcDbEntity
  8
Layer_1
 62
7
100
AcDbPolyline
 90
2
 70
0
 10
231.141103
 20
39.144835
 30
0.0
 10
241.141103
 20
39.144835
 30
0.0
  0
LWPOLYLINE
  5
1e7
100
AcDbEntity
  8
Layer_1
 62
7
100
AcDbPolyline
 90
2
 70
0
 10
231.141103
 20
41.144831
 30
0.0
 10
241.141103
 20
41.144831
 30
0.0
  0
LWPOLYLINE
  5
1e8
100
AcDbEntity
  8
Layer_1
 62
7
100
AcDbPolyline
 90
2
 70
0
 10
232.141104
 20
43.144855
 30
0.0
 10
240.141105
 20
43.144855
 30
0.0
  0
LWPOLYLINE
  5
1e9
100
AcDbEntity
  8
Layer_1
 62
7
100
AcDbPolyline
 90
5
 70
0
 10
244.141106
 20
9.644851
 30
0.0
 10
244.141106
 20
5.644831
 30
0.0
 10
228.141107
 20
5.644831
 30
0.0
 10
228.141107
 20
9.644851
 30
0.0
 10
228.141107
 20
9.644851
 30
0.0
  0
LWPOLYLINE
  5
1ea
100
AcDbEntity
  8
Layer_1
 62
7
100
AcDbPolyline
 90
5
 70
0
 10
224.141109
 20
204.144835
 30
0.0
 10
224.141109
 20
228.144835
 30
0.0
 10
272.141109
 20
228.144835
 30
0.0
 10
272.141109
 20
204.144835
 30
0.0
 10
224.141109
 20
204.144835
 30
0.0
  0
LWPOLYLINE
  5
1eb
100
AcDbEntity
  8
Layer_1
 62
7
100
AcDbPolyline
 90
3
 70
0
 10
264.141108
 20
260.144836
 30
0.0
 10
264.141108
 20
228.144835
 30
0.0
 10
264.141108
 20
260.144836
 30
0.0
  0
LWPOLYLINE
  5
1ec
100
AcDbEntity
  8
Layer_1
 62
7
100
AcDbPolyline
 90
2
 70
0
 10
272.141109
 20
260.144836
 30
0.0
 10
272.141109
 20
228.144835
 30
0.0
  0
LWPOLYLINE
  5
1ed
100
AcDbEntity
  8
Layer_1
 62
7
100
AcDbPolyline
 90
2
 70
0
 10
240.141108
 20
228.144835
 30
0.0
 10
240.141108
 20
204.144835
 30
0.0
  0
LWPOLYLINE
  5
1ee
100
AcDbEntity
  8
Layer_1
 62
7
100
AcDbPolyline
 90
2
 70
0
 10
256.141107
 20
228.144835
 30
0.0
 10
256.141107
 20
204.144835
 30
0.0
  0
LWPOLYLINE
  5
1ef
100
AcDbEntity
  8
Layer_1
 62
7
100
AcDbPolyline
 90
2
 70
0
 10
264.141108
 20
244.144837
 30
0.0
 10
272.141109
 20
244.144837
 30
0.0
  0
LWPOLYLINE
  5
1f0
100
AcDbEntity
  8
Layer_1
 62
7
100
AcDbPolyline
 90
2
 70
0
 10
224.141109
 20
220.144834
 30
0.0
 10
272.141109
 20
220.144834
 30
0.0
  0
LWPOLYLINE
  5
1f1
100
AcDbEntity
  8
Layer_1
 62
7
100
AcDbPolyline
 90
2
 70
0
 10
224.141109
 20
212.144836
 30
0.0
 10
272.141109
 20
212.144836
 30
0.0
  0
LWPOLYLINE
  5
1f2
100
AcDbEntity
  8
Layer_1
 62
7
100
AcDbPolyline
 90
4
 70
0
 10
264.141108
 20
300.144835
 30
0.0
 10
264.141108
 20
348.144835
 30
0.0
 10
272.141109
 20
348.144835
 30
0.0
 10
272.141109
 20
300.144835
 30
0.0
  0
LWPOLYLINE
  5
1f3
100
AcDbEntity
  8
Layer_1
 62
7
100
AcDbPolyline
 90
2
 70
0
 10
264.141108
 20
316.144837
 30
0.0
 10
272.141109
 20
316.144837
 30
0.0
  0
LWPOLYLINE
  5
1f4
100
AcDbEntity
  8
Layer_1
 62
7
100
AcDbPolyline
 90
2
 70
0
 10
264.141108
 20
332.144836
 30
0.0
 10
272.141109
 20
332.144836
 30
0.0
  0
LWPOLYLINE
  5
1f5
100
AcDbEntity
  8
Layer_1
 62
7
100
AcDbPolyline
 90
4
 70
0
 10
264.141108
 20
348.144835
 30
0.0
 10
248.141109
 20
348.144835
 30
0.0
 10
248.141109
 20
332.144836
 30
0.0
 10
264.141108
 20
332.144836
 30
0.0
  0
LWPOLYLINE
  5
1f6
100
AcDbEntity
  8
Layer_1
 62
7
100
AcDbPolyline
 90
2
 70
0
 10
256.141107
 20
348.144835
 30
0.0
 10
256.141107
 20
332.144836
 30
0.0
  0
LWPOLYLINE
  5
1f7
100
AcDbEntity
  8
Layer_1
 62
7
100
AcDbPolyline
 90
6
 70
0
 10
180.141110
 20
392.144835
 30
0.0
 10
180.141110
 20
400.144835
 30
0.0
 10
164.141108
 20
400.144835
 30
0.0
 10
164.141108
 20
352.144835
 30
0.0
 10
180.141110
 20
352.144835
 30
0.0
 10
180.141110
 20
360.144836
 30
0.0
  0
LWPOLYLINE
  5
1f8
100
AcDbEntity
  8
Layer_1
 62
7
100
AcDbPolyline
 90
2
 70
0
 10
164.141108
 20
360.144836
 30
0.0
 10
180.141110
 20
360.144836
 30
0.0
  0
LWPOLYLINE
  5
1f9
100
AcDbEntity
  8
Layer_1
 62
7
100
AcDbPolyline
 90
2
 70
0
 10
164.141108
 20
368.144834
 30
0.0
 10
180.141110
 20
368.144834
 30
0.0
  0
LWPOLYLINE
  5
1fa
100
AcDbEntity
  8
Layer_1
 62
7
100
AcDbPolyline
 90
2
 70
0
 10
164.141108
 20
376.144835
 30
0.0
 10
180.141110
 20
376.144835
 30
0.0
  0
LWPOLYLINE
  5
1fb
100
AcDbEntity
  8
Layer_1
 62
7
100
AcDbPolyline
 90
2
 70
0
 10
164.141108
 20
384.144836
 30
0.0
 10
180.141110
 20
384.144836
 30
0.0
  0
LWPOLYLINE
  5
1fc
100
AcDbEntity
  8
Layer_1
 62
7
100
AcDbPolyline
 90
2
 70
0
 10
164.141108
 20
392.144835
 30
0.0
 10
180.141110
 20
392.144835
 30
0.0
  0
LWPOLYLINE
  5
1fd
100
AcDbEntity
  8
Layer_1
 62
7
100
AcDbPolyline
 90
4
 70
0
 10
248.141109
 20
340.144837
 30
0.0
 10
216.141108
 20
340.144837
 30
0.0
 10
216.141108
 20
332.144836
 30
0.0
 10
248.141109
 20
332.144836
 30
0.0
  0
LWPOLYLINE
  5
1fe
100
AcDbEntity
  8
Layer_1
 62
7
100
AcDbPolyline
 90
2
 70
0
 10
232.141107
 20
340.144837
 30
0.0
 10
232.141107
 20
332.144836
 30
0.0
  0
LWPOLYLINE
  5
1ff
100
AcDbEntity
  8
Layer_1
 62
7
100
AcDbPolyline
 90
4
 70
0
 10
164.141108
 20
292.144837
 30
0.0
 10
164.141108
 20
260.144836
 30
0.0
 10
172.141109
 20
260.144836
 30
0.0
 10
172.141109
 20
276.144835
 30
0.0
  0
LWPOLYLINE
  5
200
100
AcDbEntity
  8
Layer_1
 62
7
100
AcDbPolyline
 90
2
 70
0
 10
168.141108
 20
292.144837
 30
0.0
 10
172.141109
 20
292.144837
 30
0.0
  0
LWPOLYLINE
  5
201
100
AcDbEntity
  8
Layer_1
 62
7
100
AcDbPolyline
 90
2
 70
0
 10
164.141108
 20
276.144835
 30
0.0
 10
172.141109
 20
276.144835
 30
0.0
  0
LWPOLYLINE
  5
202
100
AcDbEntity
  8
Layer_1
 62
7
100
AcDbPolyline
 90
4
 70
0
 10
208.141107
 20
404.144835
 30
0.0
 10
192.141108
 20
404.144835
 30
0.0
 10
192.141108
 20
396.144835
 30
0.0
 10
208.141107
 20
396.144835
 30
0.0
  0
LWPOLYLINE
  5
203
100
AcDbEntity
  8
Layer_1
 62
7
100
AcDbPolyline
 90
4
 70
0
 10
248.141109
 20
404.144835
 30
0.0
 10
264.141108
 20
404.144835
 30
0.0
 10
264.141108
 20
396.144835
 30
0.0
 10
248.141109
 20
396.144835
 30
0.0
  0
LWPOLYLINE
  5
204
100
AcDbEntity
  8
Layer_1
 62
7
100
AcDbPolyline
 90
3
 70
0
 10
224.141109
 20
216.144836
 30
0.0
 10
216.141108
 20
216.144836
 30
0.0
 10
216.141108
 20
200.144834
 30
0.0
  0
LWPOLYLINE
  5
205
100
AcDbEntity
  8
Layer_1
 62
7
100
AcDbPolyline
 90
2
 70
0
 10
224.141109
 20
204.144835
 30
0.0
 10
224.141109
 20
200.144834
 30
0.0
  0
LWPOLYLINE
  5
206
100
AcDbEntity
  8
Layer_1
 62
7
100
AcDbPolyline
 90
3
 70
0
 10
176.141109
 20
216.144836
 30
0.0
 10
160.141107
 20
216.144836
 30
0.0
 10
160.141107
 20
200.144834
 30
0.0
  0
LWPOLYLINE
  5
207
100
AcDbEntity
  8
Layer_1
 62
7
100
AcDbPolyline
 90
2
 70
0
 10
176.141109
 20
202.144836
 30
0.0
 10
176.141109
 20
200.144834
 30
0.0
  0
SPLINE
  5
208
100
AcDbEntity
  8
Layer_1
 62
7
100
AcDbSpline
 70
8
 71
3
 72
8
 73
4
 74
0
 40
0
 40
0
 40
0
 40
0
 40
1
 40
1
 40
1
 40
1
 10
229.141102
 20
216.394829
 30
0.0
 10
229.141102
 20
215.704474
 30
0.0
 10
228.581458
 20
215.144830
 30
0.0
 10
227.891103
 20
215.144830
 30
0.0
  0
SPLINE
  5
209
100
AcDbEntity
  8
Layer_1
 62
7
100
AcDbSpline
 70
8
 71
3
 72
8
 73
4
 74
0
 40
0
 40
0
 40
0
 40
0
 40
1
 40
1
 40
1
 40
1
 10
227.891103
 20
215.144830
 30
0.0
 10
227.200748
 20
215.144830
 30
0.0
 10
226.641104
 20
215.704474
 30
0.0
 10
226.641104
 20
216.394829
 30
0.0
  0
SPLINE
  5
20a
100
AcDbEntity
  8
Layer_1
 62
7
100
AcDbSpline
 70
8
 71
3
 72
8
 73
4
 74
0
 40
0
 40
0
 40
0
 40
0
 40
1
 40
1
 40
1
 40
1
 10
226.641104
 20
216.394829
 30
0.0
 10
226.641104
 20
217.085184
 30
0.0
 10
227.200748
 20
217.644828
 30
0.0
 10
227.891103
 20
217.644828
 30
0.0
  0
SPLINE
  5
20b
100
AcDbEntity
  8
Layer_1
 62
7
100
AcDbSpline
 70
8
 71
3
 72
8
 73
4
 74
0
 40
0
 40
0
 40
0
 40
0
 40
1
 40
1
 40
1
 40
1
 10
227.891103
 20
217.644828
 30
0.0
 10
228.581458
 20
217.644828
 30
0.0
 10
229.141102
 20
217.085184
 30
0.0
 10
229.141102
 20
216.394829
 30
0.0
  0
LWPOLYLINE
  5
20c
100
AcDbEntity
  8
Layer_1
 62
7
100
AcDbPolyline
 90
2
 70
0
 10
160.141107
 20
208.144835
 30
0.0
 10
176.141109
 20
208.144835
 30
0.0
  0
SPLINE
  5
20d
100
AcDbEntity
  8
Layer_1
 62
7
100
AcDbSpline
 70
8
 71
3
 72
8
 73
4
 74
0
 40
0
 40
0
 40
0
 40
0
 40
1
 40
1
 40
1
 40
1
 10
229.641106
 20
207.894832
 30
0.0
 10
229.641106
 20
207.204474
 30
0.0
 10
229.081463
 20
206.644830
 30
0.0
 10
228.391108
 20
206.644830
 30
0.0
  0
SPLINE
  5
20e
100
AcDbEntity
  8
Layer_1
 62
7
100
AcDbSpline
 70
8
 71
3
 72
8
 73
4
 74
0
 40
0
 40
0
 40
0
 40
0
 40
1
 40
1
 40
1
 40
1
 10
228.391108
 20
206.644830
 30
0.0
 10
227.700750
 20
206.644830
 30
0.0
 10
227.141106
 20
207.204474
 30
0.0
 10
227.141106
 20
207.894832
 30
0.0
  0
SPLINE
  5
20f
100
AcDbEntity
  8
Layer_1
 62
7
100
AcDbSpline
 70
8
 71
3
 72
8
 73
4
 74
0
 40
0
 40
0
 40
0
 40
0
 40
1
 40
1
 40
1
 40
1
 10
227.141106
 20
207.894832
 30
0.0
 10
227.141106
 20
208.585187
 30
0.0
 10
227.700750
 20
209.144830
 30
0.0
 10
228.391108
 20
209.144830
 30
0.0
  0
SPLINE
  5
210
100
AcDbEntity
  8
Layer_1
 62
7
100
AcDbSpline
 70
8
 71
3
 72
8
 73
4
 74
0
 40
0
 40
0
 40
0
 40
0
 40
1
 40
1
 40
1
 40
1
 10
228.391108
 20
209.144830
 30
0.0
 10
229.081463
 20
209.144830
 30
0.0
 10
229.641106
 20
208.585187
 30
0.0
 10
229.641106
 20
207.894832
 30
0.0
  0
LWPOLYLINE
  5
211
100
AcDbEntity
  8
Layer_1
 62
7
100
AcDbPolyline
 90
2
 70
0
 10
229.141102
 20
216.394829
 30
0.0
 10
229.141102
 20
216.394829
 30
0.0
  0
SPLINE
  5
212
100
AcDbEntity
  8
Layer_1
 62
7
100
AcDbSpline
 70
8
 71
3
 72
8
 73
4
 74
0
 40
0
 40
0
 40
0
 40
0
 40
1
 40
1
 40
1
 40
1
 10
245.641111
 20
215.894841
 30
0.0
 10
245.641111
 20
215.204486
 30
0.0
 10
245.081467
 20
214.644842
 30
0.0
 10
244.391112
 20
214.644842
 30
0.0
  0
SPLINE
  5
213
100
AcDbEntity
  8
Layer_1
 62
7
100
AcDbSpline
 70
8
 71
3
 72
8
 73
4
 74
0
 40
0
 40
0
 40
0
 40
0
 40
1
 40
1
 40
1
 40
1
 10
244.391112
 20
214.644842
 30
0.0
 10
243.700757
 20
214.644842
 30
0.0
 10
243.141111
 20
215.204486
 30
0.0
 10
243.141111
 20
215.894841
 30
0.0
  0
SPLINE
  5
214
100
AcDbEntity
  8
Layer_1
 62
7
100
AcDbSpline
 70
8
 71
3
 72
8
 73
4
 74
0
 40
0
 40
0
 40
0
 40
0
 40
1
 40
1
 40
1
 40
1
 10
243.141111
 20
215.894841
 30
0.0
 10
243.141111
 20
216.585199
 30
0.0
 10
243.700757
 20
217.144843
 30
0.0
 10
244.391112
 20
217.144843
 30
0.0
  0
SPLINE
  5
215
100
AcDbEntity
  8
Layer_1
 62
7
100
AcDbSpline
 70
8
 71
3
 72
8
 73
4
 74
0
 40
0
 40
0
 40
0
 40
0
 40
1
 40
1
 40
1
 40
1
 10
244.391112
 20
217.144843
 30
0.0
 10
245.081467
 20
217.144843
 30
0.0
 10
245.641111
 20
216.585199
 30
0.0
 10
245.641111
 20
215.894841
 30
0.0
  0
LWPOLYLINE
  5
216
100
AcDbEntity
  8
Layer_1
 62
7
100
AcDbPolyline
 90
2
 70
0
 10
229.641106
 20
207.894832
 30
0.0
 10
229.641106
 20
207.894832
 30
0.0
  0
SPLINE
  5
217
100
AcDbEntity
  8
Layer_1
 62
7
100
AcDbSpline
 70
8
 71
3
 72
8
 73
4
 74
0
 40
0
 40
0
 40
0
 40
0
 40
1
 40
1
 40
1
 40
1
 10
229.641106
 20
223.894836
 30
0.0
 10
229.641106
 20
223.204481
 30
0.0
 10
229.081463
 20
222.644837
 30
0.0
 10
228.391108
 20
222.644837
 30
0.0
  0
SPLINE
  5
218
100
AcDbEntity
  8
Layer_1
 62
7
100
AcDbSpline
 70
8
 71
3
 72
8
 73
4
 74
0
 40
0
 40
0
 40
0
 40
0
 40
1
 40
1
 40
1
 40
1
 10
228.391108
 20
222.644837
 30
0.0
 10
227.700750
 20
222.644837
 30
0.0
 10
227.141106
 20
223.204481
 30
0.0
 10
227.141106
 20
223.894836
 30
0.0
  0
SPLINE
  5
219
100
AcDbEntity
  8
Layer_1
 62
7
100
AcDbSpline
 70
8
 71
3
 72
8
 73
4
 74
0
 40
0
 40
0
 40
0
 40
0
 40
1
 40
1
 40
1
 40
1
 10
227.141106
 20
223.894836
 30
0.0
 10
227.141106
 20
224.585191
 30
0.0
 10
227.700750
 20
225.144835
 30
0.0
 10
228.391108
 20
225.144835
 30
0.0
  0
SPLINE
  5
21a
100
AcDbEntity
  8
Layer_1
 62
7
100
AcDbSpline
 70
8
 71
3
 72
8
 73
4
 74
0
 40
0
 40
0
 40
0
 40
0
 40
1
 40
1
 40
1
 40
1
 10
228.391108
 20
225.144835
 30
0.0
 10
229.081463
 20
225.144835
 30
0.0
 10
229.641106
 20
224.585191
 30
0.0
 10
229.641106
 20
223.894836
 30
0.0
  0
LWPOLYLINE
  5
21b
100
AcDbEntity
  8
Layer_1
 62
7
100
AcDbPolyline
 90
2
 70
0
 10
245.641111
 20
215.894841
 30
0.0
 10
245.641111
 20
215.894841
 30
0.0
  0
SPLINE
  5
21c
100
AcDbEntity
  8
Layer_1
 62
7
100
AcDbSpline
 70
8
 71
3
 72
8
 73
4
 74
0
 40
0
 40
0
 40
0
 40
0
 40
1
 40
1
 40
1
 40
1
 10
245.641111
 20
223.894836
 30
0.0
 10
245.641111
 20
223.204481
 30
0.0
 10
245.081467
 20
222.644837
 30
0.0
 10
244.391112
 20
222.644837
 30
0.0
  0
SPLINE
  5
21d
100
AcDbEntity
  8
Layer_1
 62
7
100
AcDbSpline
 70
8
 71
3
 72
8
 73
4
 74
0
 40
0
 40
0
 40
0
 40
0
 40
1
 40
1
 40
1
 40
1
 10
244.391112
 20
222.644837
 30
0.0
 10
243.700757
 20
222.644837
 30
0.0
 10
243.141111
 20
223.204481
 30
0.0
 10
243.141111
 20
223.894836
 30
0.0
  0
SPLINE
  5
21e
100
AcDbEntity
  8
Layer_1
 62
7
100
AcDbSpline
 70
8
 71
3
 72
8
 73
4
 74
0
 40
0
 40
0
 40
0
 40
0
 40
1
 40
1
 40
1
 40
1
 10
243.141111
 20
223.894836
 30
0.0
 10
243.141111
 20
224.585191
 30
0.0
 10
243.700757
 20
225.144835
 30
0.0
 10
244.391112
 20
225.144835
 30
0.0
  0
SPLINE
  5
21f
100
AcDbEntity
  8
Layer_1
 62
7
100
AcDbSpline
 70
8
 71
3
 72
8
 73
4
 74
0
 40
0
 40
0
 40
0
 40
0
 40
1
 40
1
 40
1
 40
1
 10
244.391112
 20
225.144835
 30
0.0
 10
245.081467
 20
225.144835
 30
0.0
 10
245.641111
 20
224.585191
 30
0.0
 10
245.641111
 20
223.894836
 30
0.0
  0
LWPOLYLINE
  5
220
100
AcDbEntity
  8
Layer_1
 62
7
100
AcDbPolyline
 90
2
 70
0
 10
229.641106
 20
223.894836
 30
0.0
 10
229.641106
 20
223.894836
 30
0.0
  0
SPLINE
  5
221
100
AcDbEntity
  8
Layer_1
 62
7
100
AcDbSpline
 70
8
 71
3
 72
8
 73
4
 74
0
 40
0
 40
0
 40
0
 40
0
 40
1
 40
1
 40
1
 40
1
 10
261.641099
 20
223.894836
 30
0.0
 10
261.641099
 20
223.204481
 30
0.0
 10
261.081455
 20
222.644837
 30
0.0
 10
260.391100
 20
222.644837
 30
0.0
  0
SPLINE
  5
222
100
AcDbEntity
  8
Layer_1
 62
7
100
AcDbSpline
 70
8
 71
3
 72
8
 73
4
 74
0
 40
0
 40
0
 40
0
 40
0
 40
1
 40
1
 40
1
 40
1
 10
260.391100
 20
222.644837
 30
0.0
 10
259.700745
 20
222.644837
 30
0.0
 10
259.141101
 20
223.204481
 30
0.0
 10
259.141101
 20
223.894836
 30
0.0
  0
SPLINE
  5
223
100
AcDbEntity
  8
Layer_1
 62
7
100
AcDbSpline
 70
8
 71
3
 72
8
 73
4
 74
0
 40
0
 40
0
 40
0
 40
0
 40
1
 40
1
 40
1
 40
1
 10
259.141101
 20
223.894836
 30
0.0
 10
259.141101
 20
224.585191
 30
0.0
 10
259.700745
 20
225.144835
 30
0.0
 10
260.391100
 20
225.144835
 30
0.0
  0
SPLINE
  5
224
100
AcDbEntity
  8
Layer_1
 62
7
100
AcDbSpline
 70
8
 71
3
 72
8
 73
4
 74
0
 40
0
 40
0
 40
0
 40
0
 40
1
 40
1
 40
1
 40
1
 10
260.391100
 20
225.144835
 30
0.0
 10
261.081455
 20
225.144835
 30
0.0
 10
261.641099
 20
224.585191
 30
0.0
 10
261.641099
 20
223.894836
 30
0.0
  0
LWPOLYLINE
  5
225
100
AcDbEntity
  8
Layer_1
 62
7
100
AcDbPolyline
 90
2
 70
0
 10
245.641111
 20
223.894836
 30
0.0
 10
245.641111
 20
223.894836
 30
0.0
  0
SPLINE
  5
226
100
AcDbEntity
  8
Layer_1
 62
7
100
AcDbSpline
 70
8
 71
3
 72
8
 73
4
 74
0
 40
0
 40
0
 40
0
 40
0
 40
1
 40
1
 40
1
 40
1
 10
261.641099
 20
215.894841
 30
0.0
 10
261.641099
 20
215.204486
 30
0.0
 10
261.081455
 20
214.644842
 30
0.0
 10
260.391100
 20
214.644842
 30
0.0
  0
SPLINE
  5
227
100
AcDbEntity
  8
Layer_1
 62
7
100
AcDbSpline
 70
8
 71
3
 72
8
 73
4
 74
0
 40
0
 40
0
 40
0
 40
0
 40
1
 40
1
 40
1
 40
1
 10
260.391100
 20
214.644842
 30
0.0
 10
259.700745
 20
214.644842
 30
0.0
 10
259.141101
 20
215.204486
 30
0.0
 10
259.141101
 20
215.894841
 30
0.0
  0
SPLINE
  5
228
100
AcDbEntity
  8
Layer_1
 62
7
100
AcDbSpline
 70
8
 71
3
 72
8
 73
4
 74
0
 40
0
 40
0
 40
0
 40
0
 40
1
 40
1
 40
1
 40
1
 10
259.141101
 20
215.894841
 30
0.0
 10
259.141101
 20
216.585199
 30
0.0
 10
259.700745
 20
217.144843
 30
0.0
 10
260.391100
 20
217.144843
 30
0.0
  0
SPLINE
  5
229
100
AcDbEntity
  8
Layer_1
 62
7
100
AcDbSpline
 70
8
 71
3
 72
8
 73
4
 74
0
 40
0
 40
0
 40
0
 40
0
 40
1
 40
1
 40
1
 40
1
 10
260.391100
 20
217.144843
 30
0.0
 10
261.081455
 20
217.144843
 30
0.0
 10
261.641099
 20
216.585199
 30
0.0
 10
261.641099
 20
215.894841
 30
0.0
  0
LWPOLYLINE
  5
22a
100
AcDbEntity
  8
Layer_1
 62
7
100
AcDbPolyline
 90
2
 70
0
 10
261.641099
 20
223.894836
 30
0.0
 10
261.641099
 20
223.894836
 30
0.0
  0
SPLINE
  5
22b
100
AcDbEntity
  8
Layer_1
 62
7
100
AcDbSpline
 70
8
 71
3
 72
8
 73
4
 74
0
 40
0
 40
0
 40
0
 40
0
 40
1
 40
1
 40
1
 40
1
 10
245.641111
 20
207.894832
 30
0.0
 10
245.641111
 20
207.204474
 30
0.0
 10
245.081467
 20
206.644830
 30
0.0
 10
244.391112
 20
206.644830
 30
0.0
  0
SPLINE
  5
22c
100
AcDbEntity
  8
Layer_1
 62
7
100
AcDbSpline
 70
8
 71
3
 72
8
 73
4
 74
0
 40
0
 40
0
 40
0
 40
0
 40
1
 40
1
 40
1
 40
1
 10
244.391112
 20
206.644830
 30
0.0
 10
243.700757
 20
206.644830
 30
0.0
 10
243.141111
 20
207.204474
 30
0.0
 10
243.141111
 20
207.894832
 30
0.0
  0
SPLINE
  5
22d
100
AcDbEntity
  8
Layer_1
 62
7
100
AcDbSpline
 70
8
 71
3
 72
8
 73
4
 74
0
 40
0
 40
0
 40
0
 40
0
 40
1
 40
1
 40
1
 40
1
 10
243.141111
 20
207.894832
 30
0.0
 10
243.141111
 20
208.585187
 30
0.0
 10
243.700757
 20
209.144830
 30
0.0
 10
244.391112
 20
209.144830
 30
0.0
  0
SPLINE
  5
22e
100
AcDbEntity
  8
Layer_1
 62
7
100
AcDbSpline
 70
8
 71
3
 72
8
 73
4
 74
0
 40
0
 40
0
 40
0
 40
0
 40
1
 40
1
 40
1
 40
1
 10
244.391112
 20
209.144830
 30
0.0
 10
245.081467
 20
209.144830
 30
0.0
 10
245.641111
 20
208.585187
 30
0.0
 10
245.641111
 20
207.894832
 30
0.0
  0
LWPOLYLINE
  5
22f
100
AcDbEntity
  8
Layer_1
 62
7
100
AcDbPolyline
 90
2
 70
0
 10
261.641099
 20
215.894841
 30
0.0
 10
261.641099
 20
215.894841
 30
0.0
  0
SPLINE
  5
230
100
AcDbEntity
  8
Layer_1
 62
7
100
AcDbSpline
 70
8
 71
3
 72
8
 73
4
 74
0
 40
0
 40
0
 40
0
 40
0
 40
1
 40
1
 40
1
 40
1
 10
261.641099
 20
207.894832
 30
0.0
 10
261.641099
 20
207.204474
 30
0.0
 10
261.081455
 20
206.644830
 30
0.0
 10
260.391100
 20
206.644830
 30
0.0
  0
SPLINE
  5
231
100
AcDbEntity
  8
Layer_1
 62
7
100
AcDbSpline
 70
8
 71
3
 72
8
 73
4
 74
0
 40
0
 40
0
 40
0
 40
0
 40
1
 40
1
 40
1
 40
1
 10
260.391100
 20
206.644830
 30
0.0
 10
259.700745
 20
206.644830
 30
0.0
 10
259.141101
 20
207.204474
 30
0.0
 10
259.141101
 20
207.894832
 30
0.0
  0
SPLINE
  5
232
100
AcDbEntity
  8
Layer_1
 62
7
100
AcDbSpline
 70
8
 71
3
 72
8
 73
4
 74
0
 40
0
 40
0
 40
0
 40
0
 40
1
 40
1
 40
1
 40
1
 10
259.141101
 20
207.894832
 30
0.0
 10
259.141101
 20
208.585187
 30
0.0
 10
259.700745
 20
209.144830
 30
0.0
 10
260.391100
 20
209.144830
 30
0.0
  0
SPLINE
  5
233
100
AcDbEntity
  8
Layer_1
 62
7
100
AcDbSpline
 70
8
 71
3
 72
8
 73
4
 74
0
 40
0
 40
0
 40
0
 40
0
 40
1
 40
1
 40
1
 40
1
 10
260.391100
 20
209.144830
 30
0.0
 10
261.081455
 20
209.144830
 30
0.0
 10
261.641099
 20
208.585187
 30
0.0
 10
261.641099
 20
207.894832
 30
0.0
  0
LWPOLYLINE
  5
234
100
AcDbEntity
  8
Layer_1
 62
7
100
AcDbPolyline
 90
2
 70
0
 10
245.641111
 20
207.894832
 30
0.0
 10
245.641111
 20
207.894832
 30
0.0
  0
SPLINE
  5
235
100
AcDbEntity
  8
Layer_1
 62
7
100
AcDbSpline
 70
8
 71
3
 72
8
 73
4
 74
0
 40
0
 40
0
 40
0
 40
0
 40
1
 40
1
 40
1
 40
1
 10
269.641111
 20
231.894832
 30
0.0
 10
269.641111
 20
231.204474
 30
0.0
 10
269.081467
 20
230.644830
 30
0.0
 10
268.391112
 20
230.644830
 30
0.0
  0
SPLINE
  5
236
100
AcDbEntity
  8
Layer_1
 62
7
100
AcDbSpline
 70
8
 71
3
 72
8
 73
4
 74
0
 40
0
 40
0
 40
0
 40
0
 40
1
 40
1
 40
1
 40
1
 10
268.391112
 20
230.644830
 30
0.0
 10
267.700754
 20
230.644830
 30
0.0
 10
267.141111
 20
231.204474
 30
0.0
 10
267.141111
 20
231.894832
 30
0.0
  0
SPLINE
  5
237
100
AcDbEntity
  8
Layer_1
 62
7
100
AcDbSpline
 70
8
 71
3
 72
8
 73
4
 74
0
 40
0
 40
0
 40
0
 40
0
 40
1
 40
1
 40
1
 40
1
 10
267.141111
 20
231.894832
 30
0.0
 10
267.141111
 20
232.585187
 30
0.0
 10
267.700754
 20
233.144830
 30
0.0
 10
268.391112
 20
233.144830
 30
0.0
  0
SPLINE
  5
238
100
AcDbEntity
  8
Layer_1
 62
7
100
AcDbSpline
 70
8
 71
3
 72
8
 73
4
 74
0
 40
0
 40
0
 40
0
 40
0
 40
1
 40
1
 40
1
 40
1
 10
268.391112
 20
233.144830
 30
0.0
 10
269.081467
 20
233.144830
 30
0.0
 10
269.641111
 20
232.585187
 30
0.0
 10
269.641111
 20
231.894832
 30
0.0
  0
LWPOLYLINE
  5
239
100
AcDbEntity
  8
Layer_1
 62
7
100
AcDbPolyline
 90
2
 70
0
 10
261.641099
 20
207.894832
 30
0.0
 10
261.641099
 20
207.894832
 30
0.0
  0
SPLINE
  5
23a
100
AcDbEntity
  8
Layer_1
 62
7
100
AcDbSpline
 70
8
 71
3
 72
8
 73
4
 74
0
 40
0
 40
0
 40
0
 40
0
 40
1
 40
1
 40
1
 40
1
 10
269.641111
 20
248.394841
 30
0.0
 10
269.641111
 20
247.704483
 30
0.0
 10
269.081467
 20
247.144839
 30
0.0
 10
268.391112
 20
247.144839
 30
0.0
  0
SPLINE
  5
23b
100
AcDbEntity
  8
Layer_1
 62
7
100
AcDbSpline
 70
8
 71
3
 72
8
 73
4
 74
0
 40
0
 40
0
 40
0
 40
0
 40
1
 40
1
 40
1
 40
1
 10
268.391112
 20
247.144839
 30
0.0
 10
267.700754
 20
247.144839
 30
0.0
 10
267.141111
 20
247.704483
 30
0.0
 10
267.141111
 20
248.394841
 30
0.0
  0
SPLINE
  5
23c
100
AcDbEntity
  8
Layer_1
 62
7
100
AcDbSpline
 70
8
 71
3
 72
8
 73
4
 74
0
 40
0
 40
0
 40
0
 40
0
 40
1
 40
1
 40
1
 40
1
 10
267.141111
 20
248.394841
 30
0.0
 10
267.141111
 20
249.085196
 30
0.0
 10
267.700754
 20
249.644840
 30
0.0
 10
268.391112
 20
249.644840
 30
0.0
  0
SPLINE
  5
23d
100
AcDbEntity
  8
Layer_1
 62
7
100
AcDbSpline
 70
8
 71
3
 72
8
 73
4
 74
0
 40
0
 40
0
 40
0
 40
0
 40
1
 40
1
 40
1
 40
1
 10
268.391112
 20
249.644840
 30
0.0
 10
269.081467
 20
249.644840
 30
0.0
 10
269.641111
 20
249.085196
 30
0.0
 10
269.641111
 20
248.394841
 30
0.0
  0
LWPOLYLINE
  5
23e
100
AcDbEntity
  8
Layer_1
 62
7
100
AcDbPolyline
 90
2
 70
0
 10
269.641111
 20
231.894832
 30
0.0
 10
269.641111
 20
231.894832
 30
0.0
  0
SPLINE
  5
23f
100
AcDbEntity
  8
Layer_1
 62
7
100
AcDbSpline
 70
8
 71
3
 72
8
 73
4
 74
0
 40
0
 40
0
 40
0
 40
0
 40
1
 40
1
 40
1
 40
1
 10
269.641111
 20
304.394833
 30
0.0
 10
269.641111
 20
303.704475
 30
0.0
 10
269.081467
 20
303.144832
 30
0.0
 10
268.391112
 20
303.144832
 30
0.0
  0
SPLINE
  5
240
100
AcDbEntity
  8
Layer_1
 62
7
100
AcDbSpline
 70
8
 71
3
 72
8
 73
4
 74
0
 40
0
 40
0
 40
0
 40
0
 40
1
 40
1
 40
1
 40
1
 10
268.391112
 20
303.144832
 30
0.0
 10
267.700754
 20
303.144832
 30
0.0
 10
267.141111
 20
303.704475
 30
0.0
 10
267.141111
 20
304.394833
 30
0.0
  0
SPLINE
  5
241
100
AcDbEntity
  8
Layer_1
 62
7
100
AcDbSpline
 70
8
 71
3
 72
8
 73
4
 74
0
 40
0
 40
0
 40
0
 40
0
 40
1
 40
1
 40
1
 40
1
 10
267.141111
 20
304.394833
 30
0.0
 10
267.141111
 20
305.085188
 30
0.0
 10
267.700754
 20
305.644832
 30
0.0
 10
268.391112
 20
305.644832
 30
0.0
  0
SPLINE
  5
242
100
AcDbEntity
  8
Layer_1
 62
7
100
AcDbSpline
 70
8
 71
3
 72
8
 73
4
 74
0
 40
0
 40
0
 40
0
 40
0
 40
1
 40
1
 40
1
 40
1
 10
268.391112
 20
305.644832
 30
0.0
 10
269.081467
 20
305.644832
 30
0.0
 10
269.641111
 20
305.085188
 30
0.0
 10
269.641111
 20
304.394833
 30
0.0
  0
LWPOLYLINE
  5
243
100
AcDbEntity
  8
Layer_1
 62
7
100
AcDbPolyline
 90
2
 70
0
 10
269.641111
 20
248.394841
 30
0.0
 10
269.641111
 20
248.394841
 30
0.0
  0
SPLINE
  5
244
100
AcDbEntity
  8
Layer_1
 62
7
100
AcDbSpline
 70
8
 71
3
 72
8
 73
4
 74
0
 40
0
 40
0
 40
0
 40
0
 40
1
 40
1
 40
1
 40
1
 10
269.641111
 20
320.394838
 30
0.0
 10
269.641111
 20
319.704483
 30
0.0
 10
269.081467
 20
319.144836
 30
0.0
 10
268.391112
 20
319.144836
 30
0.0
  0
SPLINE
  5
245
100
AcDbEntity
  8
Layer_1
 62
7
100
AcDbSpline
 70
8
 71
3
 72
8
 73
4
 74
0
 40
0
 40
0
 40
0
 40
0
 40
1
 40
1
 40
1
 40
1
 10
268.391112
 20
319.144836
 30
0.0
 10
267.700754
 20
319.144836
 30
0.0
 10
267.141111
 20
319.704483
 30
0.0
 10
267.141111
 20
320.394838
 30
0.0
  0
SPLINE
  5
246
100
AcDbEntity
  8
Layer_1
 62
7
100
AcDbSpline
 70
8
 71
3
 72
8
 73
4
 74
0
 40
0
 40
0
 40
0
 40
0
 40
1
 40
1
 40
1
 40
1
 10
267.141111
 20
320.394838
 30
0.0
 10
267.141111
 20
321.085193
 30
0.0
 10
267.700754
 20
321.644837
 30
0.0
 10
268.391112
 20
321.644837
 30
0.0
  0
SPLINE
  5
247
100
AcDbEntity
  8
Layer_1
 62
7
100
AcDbSpline
 70
8
 71
3
 72
8
 73
4
 74
0
 40
0
 40
0
 40
0
 40
0
 40
1
 40
1
 40
1
 40
1
 10
268.391112
 20
321.644837
 30
0.0
 10
269.081467
 20
321.644837
 30
0.0
 10
269.641111
 20
321.085193
 30
0.0
 10
269.641111
 20
320.394838
 30
0.0
  0
LWPOLYLINE
  5
248
100
AcDbEntity
  8
Layer_1
 62
7
100
AcDbPolyline
 90
2
 70
0
 10
269.641111
 20
304.394833
 30
0.0
 10
269.641111
 20
304.394833
 30
0.0
  0
SPLINE
  5
249
100
AcDbEntity
  8
Layer_1
 62
7
100
AcDbSpline
 70
8
 71
3
 72
8
 73
4
 74
0
 40
0
 40
0
 40
0
 40
0
 40
1
 40
1
 40
1
 40
1
 10
269.641111
 20
336.394834
 30
0.0
 10
269.641111
 20
335.704479
 30
0.0
 10
269.081467
 20
335.144835
 30
0.0
 10
268.391112
 20
335.144835
 30
0.0
  0
SPLINE
  5
24a
100
AcDbEntity
  8
Layer_1
 62
7
100
AcDbSpline
 70
8
 71
3
 72
8
 73
4
 74
0
 40
0
 40
0
 40
0
 40
0
 40
1
 40
1
 40
1
 40
1
 10
268.391112
 20
335.144835
 30
0.0
 10
267.700754
 20
335.144835
 30
0.0
 10
267.141111
 20
335.704479
 30
0.0
 10
267.141111
 20
336.394834
 30
0.0
  0
SPLINE
  5
24b
100
AcDbEntity
  8
Layer_1
 62
7
100
AcDbSpline
 70
8
 71
3
 72
8
 73
4
 74
0
 40
0
 40
0
 40
0
 40
0
 40
1
 40
1
 40
1
 40
1
 10
267.141111
 20
336.394834
 30
0.0
 10
267.141111
 20
337.085189
 30
0.0
 10
267.700754
 20
337.644833
 30
0.0
 10
268.391112
 20
337.644833
 30
0.0
  0
SPLINE
  5
24c
100
AcDbEntity
  8
Layer_1
 62
7
100
AcDbSpline
 70
8
 71
3
 72
8
 73
4
 74
0
 40
0
 40
0
 40
0
 40
0
 40
1
 40
1
 40
1
 40
1
 10
268.391112
 20
337.644833
 30
0.0
 10
269.081467
 20
337.644833
 30
0.0
 10
269.641111
 20
337.085189
 30
0.0
 10
269.641111
 20
336.394834
 30
0.0
  0
LWPOLYLINE
  5
24d
100
AcDbEntity
  8
Layer_1
 62
7
100
AcDbPolyline
 90
2
 70
0
 10
269.641111
 20
320.394838
 30
0.0
 10
269.641111
 20
320.394838
 30
0.0
  0
SPLINE
  5
24e
100
AcDbEntity
  8
Layer_1
 62
7
100
AcDbSpline
 70
8
 71
3
 72
8
 73
4
 74
0
 40
0
 40
0
 40
0
 40
0
 40
1
 40
1
 40
1
 40
1
 10
261.641099
 20
336.394834
 30
0.0
 10
261.641099
 20
335.704479
 30
0.0
 10
261.081455
 20
335.144835
 30
0.0
 10
260.391100
 20
335.144835
 30
0.0
  0
SPLINE
  5
24f
100
AcDbEntity
  8
Layer_1
 62
7
100
AcDbSpline
 70
8
 71
3
 72
8
 73
4
 74
0
 40
0
 40
0
 40
0
 40
0
 40
1
 40
1
 40
1
 40
1
 10
260.391100
 20
335.144835
 30
0.0
 10
259.700745
 20
335.144835
 30
0.0
 10
259.141101
 20
335.704479
 30
0.0
 10
259.141101
 20
336.394834
 30
0.0
  0
SPLINE
  5
250
100
AcDbEntity
  8
Layer_1
 62
7
100
AcDbSpline
 70
8
 71
3
 72
8
 73
4
 74
0
 40
0
 40
0
 40
0
 40
0
 40
1
 40
1
 40
1
 40
1
 10
259.141101
 20
336.394834
 30
0.0
 10
259.141101
 20
337.085189
 30
0.0
 10
259.700745
 20
337.644833
 30
0.0
 10
260.391100
 20
337.644833
 30
0.0
  0
SPLINE
  5
251
100
AcDbEntity
  8
Layer_1
 62
7
100
AcDbSpline
 70
8
 71
3
 72
8
 73
4
 74
0
 40
0
 40
0
 40
0
 40
0
 40
1
 40
1
 40
1
 40
1
 10
260.391100
 20
337.644833
 30
0.0
 10
261.081455
 20
337.644833
 30
0.0
 10
261.641099
 20
337.085189
 30
0.0
 10
261.641099
 20
336.394834
 30
0.0
  0
LWPOLYLINE
  5
252
100
AcDbEntity
  8
Layer_1
 62
7
100
AcDbPolyline
 90
2
 70
0
 10
269.641111
 20
336.394834
 30
0.0
 10
269.641111
 20
336.394834
 30
0.0
  0
SPLINE
  5
253
100
AcDbEntity
  8
Layer_1
 62
7
100
AcDbSpline
 70
8
 71
3
 72
8
 73
4
 74
0
 40
0
 40
0
 40
0
 40
0
 40
1
 40
1
 40
1
 40
1
 10
253.641106
 20
336.394834
 30
0.0
 10
253.641106
 20
335.704479
 30
0.0
 10
253.081463
 20
335.144835
 30
0.0
 10
252.391105
 20
335.144835
 30
0.0
  0
SPLINE
  5
254
100
AcDbEntity
  8
Layer_1
 62
7
100
AcDbSpline
 70
8
 71
3
 72
8
 73
4
 74
0
 40
0
 40
0
 40
0
 40
0
 40
1
 40
1
 40
1
 40
1
 10
252.391105
 20
335.144835
 30
0.0
 10
251.700750
 20
335.144835
 30
0.0
 10
251.141106
 20
335.704479
 30
0.0
 10
251.141106
 20
336.394834
 30
0.0
  0
SPLINE
  5
255
100
AcDbEntity
  8
Layer_1
 62
7
100
AcDbSpline
 70
8
 71
3
 72
8
 73
4
 74
0
 40
0
 40
0
 40
0
 40
0
 40
1
 40
1
 40
1
 40
1
 10
251.141106
 20
336.394834
 30
0.0
 10
251.141106
 20
337.085189
 30
0.0
 10
251.700750
 20
337.644833
 30
0.0
 10
252.391105
 20
337.644833
 30
0.0
  0
SPLINE
  5
256
100
AcDbEntity
  8
Layer_1
 62
7
100
AcDbSpline
 70
8
 71
3
 72
8
 73
4
 74
0
 40
0
 40
0
 40
0
 40
0
 40
1
 40
1
 40
1
 40
1
 10
252.391105
 20
337.644833
 30
0.0
 10
253.081463
 20
337.644833
 30
0.0
 10
253.641106
 20
337.085189
 30
0.0
 10
253.641106
 20
336.394834
 30
0.0
  0
LWPOLYLINE
  5
257
100
AcDbEntity
  8
Layer_1
 62
7
100
AcDbPolyline
 90
2
 70
0
 10
261.641099
 20
336.394834
 30
0.0
 10
261.641099
 20
336.394834
 30
0.0
  0
SPLINE
  5
258
100
AcDbEntity
  8
Layer_1
 62
7
100
AcDbSpline
 70
8
 71
3
 72
8
 73
4
 74
0
 40
0
 40
0
 40
0
 40
0
 40
1
 40
1
 40
1
 40
1
 10
237.641102
 20
336.394834
 30
0.0
 10
237.641102
 20
335.704479
 30
0.0
 10
237.081458
 20
335.144835
 30
0.0
 10
236.391100
 20
335.144835
 30
0.0
  0
SPLINE
  5
259
100
AcDbEntity
  8
Layer_1
 62
7
100
AcDbSpline
 70
8
 71
3
 72
8
 73
4
 74
0
 40
0
 40
0
 40
0
 40
0
 40
1
 40
1
 40
1
 40
1
 10
236.391100
 20
335.144835
 30
0.0
 10
235.700745
 20
335.144835
 30
0.0
 10
235.141101
 20
335.704479
 30
0.0
 10
235.141101
 20
336.394834
 30
0.0
  0
SPLINE
  5
25a
100
AcDbEntity
  8
Layer_1
 62
7
100
AcDbSpline
 70
8
 71
3
 72
8
 73
4
 74
0
 40
0
 40
0
 40
0
 40
0
 40
1
 40
1
 40
1
 40
1
 10
235.141101
 20
336.394834
 30
0.0
 10
235.141101
 20
337.085189
 30
0.0
 10
235.700745
 20
337.644833
 30
0.0
 10
236.391100
 20
337.644833
 30
0.0
  0
SPLINE
  5
25b
100
AcDbEntity
  8
Layer_1
 62
7
100
AcDbSpline
 70
8
 71
3
 72
8
 73
4
 74
0
 40
0
 40
0
 40
0
 40
0
 40
1
 40
1
 40
1
 40
1
 10
236.391100
 20
337.644833
 30
0.0
 10
237.081458
 20
337.644833
 30
0.0
 10
237.641102
 20
337.085189
 30
0.0
 10
237.641102
 20
336.394834
 30
0.0
  0
LWPOLYLINE
  5
25c
100
AcDbEntity
  8
Layer_1
 62
7
100
AcDbPolyline
 90
2
 70
0
 10
253.641106
 20
336.394834
 30
0.0
 10
253.641106
 20
336.394834
 30
0.0
  0
SPLINE
  5
25d
100
AcDbEntity
  8
Layer_1
 62
7
100
AcDbSpline
 70
8
 71
3
 72
8
 73
4
 74
0
 40
0
 40
0
 40
0
 40
0
 40
1
 40
1
 40
1
 40
1
 10
221.641114
 20
336.394834
 30
0.0
 10
221.641114
 20
335.704479
 30
0.0
 10
221.081467
 20
335.144835
 30
0.0
 10
220.391112
 20
335.144835
 30
0.0
  0
SPLINE
  5
25e
100
AcDbEntity
  8
Layer_1
 62
7
100
AcDbSpline
 70
8
 71
3
 72
8
 73
4
 74
0
 40
0
 40
0
 40
0
 40
0
 40
1
 40
1
 40
1
 40
1
 10
220.391112
 20
335.144835
 30
0.0
 10
219.700757
 20
335.144835
 30
0.0
 10
219.141113
 20
335.704479
 30
0.0
 10
219.141113
 20
336.394834
 30
0.0
  0
SPLINE
  5
25f
100
AcDbEntity
  8
Layer_1
 62
7
100
AcDbSpline
 70
8
 71
3
 72
8
 73
4
 74
0
 40
0
 40
0
 40
0
 40
0
 40
1
 40
1
 40
1
 40
1
 10
219.141113
 20
336.394834
 30
0.0
 10
219.141113
 20
337.085189
 30
0.0
 10
219.700757
 20
337.644833
 30
0.0
 10
220.391112
 20
337.644833
 30
0.0
  0
SPLINE
  5
260
100
AcDbEntity
  8
Layer_1
 62
7
100
AcDbSpline
 70
8
 71
3
 72
8
 73
4
 74
0
 40
0
 40
0
 40
0
 40
0
 40
1
 40
1
 40
1
 40
1
 10
220.391112
 20
337.644833
 30
0.0
 10
221.081467
 20
337.644833
 30
0.0
 10
221.641114
 20
337.085189
 30
0.0
 10
221.641114
 20
336.394834
 30
0.0
  0
LWPOLYLINE
  5
261
100
AcDbEntity
  8
Layer_1
 62
7
100
AcDbPolyline
 90
2
 70
0
 10
237.641102
 20
336.394834
 30
0.0
 10
237.641102
 20
336.394834
 30
0.0
  0
SPLINE
  5
262
100
AcDbEntity
  8
Layer_1
 62
7
100
AcDbSpline
 70
8
 71
3
 72
8
 73
4
 74
0
 40
0
 40
0
 40
0
 40
0
 40
1
 40
1
 40
1
 40
1
 10
169.641099
 20
356.394837
 30
0.0
 10
169.641099
 20
355.704481
 30
0.0
 10
169.081456
 20
355.144838
 30
0.0
 10
168.391101
 20
355.144838
 30
0.0
  0
SPLINE
  5
263
100
AcDbEntity
  8
Layer_1
 62
7
100
AcDbSpline
 70
8
 71
3
 72
8
 73
4
 74
0
 40
0
 40
0
 40
0
 40
0
 40
1
 40
1
 40
1
 40
1
 10
168.391101
 20
355.144838
 30
0.0
 10
167.700743
 20
355.144838
 30
0.0
 10
167.141099
 20
355.704481
 30
0.0
 10
167.141099
 20
356.394837
 30
0.0
  0
SPLINE
  5
264
100
AcDbEntity
  8
Layer_1
 62
7
100
AcDbSpline
 70
8
 71
3
 72
8
 73
4
 74
0
 40
0
 40
0
 40
0
 40
0
 40
1
 40
1
 40
1
 40
1
 10
167.141099
 20
356.394837
 30
0.0
 10
167.141099
 20
357.085192
 30
0.0
 10
167.700743
 20
357.644835
 30
0.0
 10
168.391101
 20
357.644835
 30
0.0
  0
SPLINE
  5
265
100
AcDbEntity
  8
Layer_1
 62
7
100
AcDbSpline
 70
8
 71
3
 72
8
 73
4
 74
0
 40
0
 40
0
 40
0
 40
0
 40
1
 40
1
 40
1
 40
1
 10
168.391101
 20
357.644835
 30
0.0
 10
169.081456
 20
357.644835
 30
0.0
 10
169.641099
 20
357.085192
 30
0.0
 10
169.641099
 20
356.394837
 30
0.0
  0
LWPOLYLINE
  5
266
100
AcDbEntity
  8
Layer_1
 62
7
100
AcDbPolyline
 90
2
 70
0
 10
221.641114
 20
336.394834
 30
0.0
 10
221.641114
 20
336.394834
 30
0.0
  0
SPLINE
  5
267
100
AcDbEntity
  8
Layer_1
 62
7
100
AcDbSpline
 70
8
 71
3
 72
8
 73
4
 74
0
 40
0
 40
0
 40
0
 40
0
 40
1
 40
1
 40
1
 40
1
 10
169.641099
 20
364.394835
 30
0.0
 10
169.641099
 20
363.704480
 30
0.0
 10
169.081456
 20
363.144836
 30
0.0
 10
168.391101
 20
363.144836
 30
0.0
  0
SPLINE
  5
268
100
AcDbEntity
  8
Layer_1
 62
7
100
AcDbSpline
 70
8
 71
3
 72
8
 73
4
 74
0
 40
0
 40
0
 40
0
 40
0
 40
1
 40
1
 40
1
 40
1
 10
168.391101
 20
363.144836
 30
0.0
 10
167.700743
 20
363.144836
 30
0.0
 10
167.141099
 20
363.704480
 30
0.0
 10
167.141099
 20
364.394835
 30
0.0
  0
SPLINE
  5
269
100
AcDbEntity
  8
Layer_1
 62
7
100
AcDbSpline
 70
8
 71
3
 72
8
 73
4
 74
0
 40
0
 40
0
 40
0
 40
0
 40
1
 40
1
 40
1
 40
1
 10
167.141099
 20
364.394835
 30
0.0
 10
167.141099
 20
365.085190
 30
0.0
 10
167.700743
 20
365.644834
 30
0.0
 10
168.391101
 20
365.644834
 30
0.0
  0
SPLINE
  5
26a
100
AcDbEntity
  8
Layer_1
 62
7
100
AcDbSpline
 70
8
 71
3
 72
8
 73
4
 74
0
 40
0
 40
0
 40
0
 40
0
 40
1
 40
1
 40
1
 40
1
 10
168.391101
 20
365.644834
 30
0.0
 10
169.081456
 20
365.644834
 30
0.0
 10
169.641099
 20
365.085190
 30
0.0
 10
169.641099
 20
364.394835
 30
0.0
  0
LWPOLYLINE
  5
26b
100
AcDbEntity
  8
Layer_1
 62
7
100
AcDbPolyline
 90
2
 70
0
 10
169.641099
 20
356.394837
 30
0.0
 10
169.641099
 20
356.394837
 30
0.0
  0
SPLINE
  5
26c
100
AcDbEntity
  8
Layer_1
 62
7
100
AcDbSpline
 70
8
 71
3
 72
8
 73
4
 74
0
 40
0
 40
0
 40
0
 40
0
 40
1
 40
1
 40
1
 40
1
 10
169.641099
 20
372.394833
 30
0.0
 10
169.641099
 20
371.704478
 30
0.0
 10
169.081456
 20
371.144834
 30
0.0
 10
168.391101
 20
371.144834
 30
0.0
  0
SPLINE
  5
26d
100
AcDbEntity
  8
Layer_1
 62
7
100
AcDbSpline
 70
8
 71
3
 72
8
 73
4
 74
0
 40
0
 40
0
 40
0
 40
0
 40
1
 40
1
 40
1
 40
1
 10
168.391101
 20
371.144834
 30
0.0
 10
167.700743
 20
371.144834
 30
0.0
 10
167.141099
 20
371.704478
 30
0.0
 10
167.141099
 20
372.394833
 30
0.0
  0
SPLINE
  5
26e
100
AcDbEntity
  8
Layer_1
 62
7
100
AcDbSpline
 70
8
 71
3
 72
8
 73
4
 74
0
 40
0
 40
0
 40
0
 40
0
 40
1
 40
1
 40
1
 40
1
 10
167.141099
 20
372.394833
 30
0.0
 10
167.141099
 20
373.085188
 30
0.0
 10
167.700743
 20
373.644835
 30
0.0
 10
168.391101
 20
373.644835
 30
0.0
  0
SPLINE
  5
26f
100
AcDbEntity
  8
Layer_1
 62
7
100
AcDbSpline
 70
8
 71
3
 72
8
 73
4
 74
0
 40
0
 40
0
 40
0
 40
0
 40
1
 40
1
 40
1
 40
1
 10
168.391101
 20
373.644835
 30
0.0
 10
169.081456
 20
373.644835
 30
0.0
 10
169.641099
 20
373.085188
 30
0.0
 10
169.641099
 20
372.394833
 30
0.0
  0
LWPOLYLINE
  5
270
100
AcDbEntity
  8
Layer_1
 62
7
100
AcDbPolyline
 90
2
 70
0
 10
169.641099
 20
364.394835
 30
0.0
 10
169.641099
 20
364.394835
 30
0.0
  0
SPLINE
  5
271
100
AcDbEntity
  8
Layer_1
 62
7
100
AcDbSpline
 70
8
 71
3
 72
8
 73
4
 74
0
 40
0
 40
0
 40
0
 40
0
 40
1
 40
1
 40
1
 40
1
 10
169.641099
 20
380.394837
 30
0.0
 10
169.641099
 20
379.704479
 30
0.0
 10
169.081456
 20
379.144835
 30
0.0
 10
168.391101
 20
379.144835
 30
0.0
  0
SPLINE
  5
272
100
AcDbEntity
  8
Layer_1
 62
7
100
AcDbSpline
 70
8
 71
3
 72
8
 73
4
 74
0
 40
0
 40
0
 40
0
 40
0
 40
1
 40
1
 40
1
 40
1
 10
168.391101
 20
379.144835
 30
0.0
 10
167.700743
 20
379.144835
 30
0.0
 10
167.141099
 20
379.704479
 30
0.0
 10
167.141099
 20
380.394837
 30
0.0
  0
SPLINE
  5
273
100
AcDbEntity
  8
Layer_1
 62
7
100
AcDbSpline
 70
8
 71
3
 72
8
 73
4
 74
0
 40
0
 40
0
 40
0
 40
0
 40
1
 40
1
 40
1
 40
1
 10
167.141099
 20
380.394837
 30
0.0
 10
167.141099
 20
381.085192
 30
0.0
 10
167.700743
 20
381.644835
 30
0.0
 10
168.391101
 20
381.644835
 30
0.0
  0
SPLINE
  5
274
100
AcDbEntity
  8
Layer_1
 62
7
100
AcDbSpline
 70
8
 71
3
 72
8
 73
4
 74
0
 40
0
 40
0
 40
0
 40
0
 40
1
 40
1
 40
1
 40
1
 10
168.391101
 20
381.644835
 30
0.0
 10
169.081456
 20
381.644835
 30
0.0
 10
169.641099
 20
381.085192
 30
0.0
 10
169.641099
 20
380.394837
 30
0.0
  0
LWPOLYLINE
  5
275
100
AcDbEntity
  8
Layer_1
 62
7
100
AcDbPolyline
 90
2
 70
0
 10
169.641099
 20
372.394833
 30
0.0
 10
169.641099
 20
372.394833
 30
0.0
  0
SPLINE
  5
276
100
AcDbEntity
  8
Layer_1
 62
7
100
AcDbSpline
 70
8
 71
3
 72
8
 73
4
 74
0
 40
0
 40
0
 40
0
 40
0
 40
1
 40
1
 40
1
 40
1
 10
169.641099
 20
388.394837
 30
0.0
 10
169.641099
 20
387.704482
 30
0.0
 10
169.081456
 20
387.144839
 30
0.0
 10
168.391101
 20
387.144839
 30
0.0
  0
SPLINE
  5
277
100
AcDbEntity
  8
Layer_1
 62
7
100
AcDbSpline
 70
8
 71
3
 72
8
 73
4
 74
0
 40
0
 40
0
 40
0
 40
0
 40
1
 40
1
 40
1
 40
1
 10
168.391101
 20
387.144839
 30
0.0
 10
167.700743
 20
387.144839
 30
0.0
 10
167.141099
 20
387.704482
 30
0.0
 10
167.141099
 20
388.394837
 30
0.0
  0
SPLINE
  5
278
100
AcDbEntity
  8
Layer_1
 62
7
100
AcDbSpline
 70
8
 71
3
 72
8
 73
4
 74
0
 40
0
 40
0
 40
0
 40
0
 40
1
 40
1
 40
1
 40
1
 10
167.141099
 20
388.394837
 30
0.0
 10
167.141099
 20
389.085195
 30
0.0
 10
167.700743
 20
389.644839
 30
0.0
 10
168.391101
 20
389.644839
 30
0.0
  0
SPLINE
  5
279
100
AcDbEntity
  8
Layer_1
 62
7
100
AcDbSpline
 70
8
 71
3
 72
8
 73
4
 74
0
 40
0
 40
0
 40
0
 40
0
 40
1
 40
1
 40
1
 40
1
 10
168.391101
 20
389.644839
 30
0.0
 10
169.081456
 20
389.644839
 30
0.0
 10
169.641099
 20
389.085195
 30
0.0
 10
169.641099
 20
388.394837
 30
0.0
  0
LWPOLYLINE
  5
27a
100
AcDbEntity
  8
Layer_1
 62
7
100
AcDbPolyline
 90
2
 70
0
 10
169.641099
 20
380.394837
 30
0.0
 10
169.641099
 20
380.394837
 30
0.0
  0
SPLINE
  5
27b
100
AcDbEntity
  8
Layer_1
 62
7
100
AcDbSpline
 70
8
 71
3
 72
8
 73
4
 74
0
 40
0
 40
0
 40
0
 40
0
 40
1
 40
1
 40
1
 40
1
 10
169.641099
 20
396.394835
 30
0.0
 10
169.641099
 20
395.704479
 30
0.0
 10
169.081456
 20
395.144835
 30
0.0
 10
168.391101
 20
395.144835
 30
0.0
  0
SPLINE
  5
27c
100
AcDbEntity
  8
Layer_1
 62
7
100
AcDbSpline
 70
8
 71
3
 72
8
 73
4
 74
0
 40
0
 40
0
 40
0
 40
0
 40
1
 40
1
 40
1
 40
1
 10
168.391101
 20
395.144835
 30
0.0
 10
167.700743
 20
395.144835
 30
0.0
 10
167.141099
 20
395.704479
 30
0.0
 10
167.141099
 20
396.394835
 30
0.0
  0
SPLINE
  5
27d
100
AcDbEntity
  8
Layer_1
 62
7
100
AcDbSpline
 70
8
 71
3
 72
8
 73
4
 74
0
 40
0
 40
0
 40
0
 40
0
 40
1
 40
1
 40
1
 40
1
 10
167.141099
 20
396.394835
 30
0.0
 10
167.141099
 20
397.085191
 30
0.0
 10
167.700743
 20
397.644835
 30
0.0
 10
168.391101
 20
397.644835
 30
0.0
  0
SPLINE
  5
27e
100
AcDbEntity
  8
Layer_1
 62
7
100
AcDbSpline
 70
8
 71
3
 72
8
 73
4
 74
0
 40
0
 40
0
 40
0
 40
0
 40
1
 40
1
 40
1
 40
1
 10
168.391101
 20
397.644835
 30
0.0
 10
169.081456
 20
397.644835
 30
0.0
 10
169.641099
 20
397.085191
 30
0.0
 10
169.641099
 20
396.394835
 30
0.0
  0
LWPOLYLINE
  5
27f
100
AcDbEntity
  8
Layer_1
 62
7
100
AcDbPolyline
 90
2
 70
0
 10
169.641099
 20
388.394837
 30
0.0
 10
169.641099
 20
388.394837
 30
0.0
  0
SPLINE
  5
280
100
AcDbEntity
  8
Layer_1
 62
7
100
AcDbSpline
 70
8
 71
3
 72
8
 73
4
 74
0
 40
0
 40
0
 40
0
 40
0
 40
1
 40
1
 40
1
 40
1
 10
197.641114
 20
400.394836
 30
0.0
 10
197.641114
 20
399.704480
 30
0.0
 10
197.081470
 20
399.144836
 30
0.0
 10
196.391112
 20
399.144836
 30
0.0
  0
SPLINE
  5
281
100
AcDbEntity
  8
Layer_1
 62
7
100
AcDbSpline
 70
8
 71
3
 72
8
 73
4
 74
0
 40
0
 40
0
 40
0
 40
0
 40
1
 40
1
 40
1
 40
1
 10
196.391112
 20
399.144836
 30
0.0
 10
195.700757
 20
399.144836
 30
0.0
 10
195.141113
 20
399.704480
 30
0.0
 10
195.141113
 20
400.394836
 30
0.0
  0
SPLINE
  5
282
100
AcDbEntity
  8
Layer_1
 62
7
100
AcDbSpline
 70
8
 71
3
 72
8
 73
4
 74
0
 40
0
 40
0
 40
0
 40
0
 40
1
 40
1
 40
1
 40
1
 10
195.141113
 20
400.394836
 30
0.0
 10
195.141113
 20
401.085192
 30
0.0
 10
195.700757
 20
401.644836
 30
0.0
 10
196.391112
 20
401.644836
 30
0.0
  0
SPLINE
  5
283
100
AcDbEntity
  8
Layer_1
 62
7
100
AcDbSpline
 70
8
 71
3
 72
8
 73
4
 74
0
 40
0
 40
0
 40
0
 40
0
 40
1
 40
1
 40
1
 40
1
 10
196.391112
 20
401.644836
 30
0.0
 10
197.081470
 20
401.644836
 30
0.0
 10
197.641114
 20
401.085192
 30
0.0
 10
197.641114
 20
400.394836
 30
0.0
  0
LWPOLYLINE
  5
284
100
AcDbEntity
  8
Layer_1
 62
7
100
AcDbPolyline
 90
2
 70
0
 10
169.641099
 20
396.394835
 30
0.0
 10
169.641099
 20
396.394835
 30
0.0
  0
SPLINE
  5
285
100
AcDbEntity
  8
Layer_1
 62
7
100
AcDbSpline
 70
8
 71
3
 72
8
 73
4
 74
0
 40
0
 40
0
 40
0
 40
0
 40
1
 40
1
 40
1
 40
1
 10
253.641106
 20
400.394836
 30
0.0
 10
253.641106
 20
399.704480
 30
0.0
 10
253.081463
 20
399.144836
 30
0.0
 10
252.391105
 20
399.144836
 30
0.0
  0
SPLINE
  5
286
100
AcDbEntity
  8
Layer_1
 62
7
100
AcDbSpline
 70
8
 71
3
 72
8
 73
4
 74
0
 40
0
 40
0
 40
0
 40
0
 40
1
 40
1
 40
1
 40
1
 10
252.391105
 20
399.144836
 30
0.0
 10
251.700750
 20
399.144836
 30
0.0
 10
251.141106
 20
399.704480
 30
0.0
 10
251.141106
 20
400.394836
 30
0.0
  0
SPLINE
  5
287
100
AcDbEntity
  8
Layer_1
 62
7
100
AcDbSpline
 70
8
 71
3
 72
8
 73
4
 74
0
 40
0
 40
0
 40
0
 40
0
 40
1
 40
1
 40
1
 40
1
 10
251.141106
 20
400.394836
 30
0.0
 10
251.141106
 20
401.085192
 30
0.0
 10
251.700750
 20
401.644836
 30
0.0
 10
252.391105
 20
401.644836
 30
0.0
  0
SPLINE
  5
288
100
AcDbEntity
  8
Layer_1
 62
7
100
AcDbSpline
 70
8
 71
3
 72
8
 73
4
 74
0
 40
0
 40
0
 40
0
 40
0
 40
1
 40
1
 40
1
 40
1
 10
252.391105
 20
401.644836
 30
0.0
 10
253.081463
 20
401.644836
 30
0.0
 10
253.641106
 20
401.085192
 30
0.0
 10
253.641106
 20
400.394836
 30
0.0
  0
LWPOLYLINE
  5
289
100
AcDbEntity
  8
Layer_1
 62
7
100
AcDbPolyline
 90
2
 70
0
 10
197.641114
 20
400.394836
 30
0.0
 10
197.641114
 20
400.394836
 30
0.0
  0
SPLINE
  5
28a
100
AcDbEntity
  8
Layer_1
 62
7
100
AcDbSpline
 70
8
 71
3
 72
8
 73
4
 74
0
 40
0
 40
0
 40
0
 40
0
 40
1
 40
1
 40
1
 40
1
 10
165.641102
 20
212.394831
 30
0.0
 10
165.641102
 20
211.704476
 30
0.0
 10
165.081458
 20
211.144832
 30
0.0
 10
164.391103
 20
211.144832
 30
0.0
  0
SPLINE
  5
28b
100
AcDbEntity
  8
Layer_1
 62
7
100
AcDbSpline
 70
8
 71
3
 72
8
 73
4
 74
0
 40
0
 40
0
 40
0
 40
0
 40
1
 40
1
 40
1
 40
1
 10
164.391103
 20
211.144832
 30
0.0
 10
163.700748
 20
211.144832
 30
0.0
 10
163.141104
 20
211.704476
 30
0.0
 10
163.141104
 20
212.394831
 30
0.0
  0
SPLINE
  5
28c
100
AcDbEntity
  8
Layer_1
 62
7
100
AcDbSpline
 70
8
 71
3
 72
8
 73
4
 74
0
 40
0
 40
0
 40
0
 40
0
 40
1
 40
1
 40
1
 40
1
 10
163.141104
 20
212.394831
 30
0.0
 10
163.141104
 20
213.085189
 30
0.0
 10
163.700748
 20
213.644833
 30
0.0
 10
164.391103
 20
213.644833
 30
0.0
  0
SPLINE
  5
28d
100
AcDbEntity
  8
Layer_1
 62
7
100
AcDbSpline
 70
8
 71
3
 72
8
 73
4
 74
0
 40
0
 40
0
 40
0
 40
0
 40
1
 40
1
 40
1
 40
1
 10
164.391103
 20
213.644833
 30
0.0
 10
165.081458
 20
213.644833
 30
0.0
 10
165.641102
 20
213.085189
 30
0.0
 10
165.641102
 20
212.394831
 30
0.0
  0
LWPOLYLINE
  5
28e
100
AcDbEntity
  8
Layer_1
 62
7
100
AcDbPolyline
 90
2
 70
0
 10
253.641106
 20
400.394836
 30
0.0
 10
253.641106
 20
400.394836
 30
0.0
  0
SPLINE
  5
28f
100
AcDbEntity
  8
Layer_1
 62
7
100
AcDbSpline
 70
8
 71
3
 72
8
 73
4
 74
0
 40
0
 40
0
 40
0
 40
0
 40
1
 40
1
 40
1
 40
1
 10
165.641102
 20
204.394839
 30
0.0
 10
165.641102
 20
203.704481
 30
0.0
 10
165.081458
 20
203.144837
 30
0.0
 10
164.391103
 20
203.144837
 30
0.0
  0
SPLINE
  5
290
100
AcDbEntity
  8
Layer_1
 62
7
100
AcDbSpline
 70
8
 71
3
 72
8
 73
4
 74
0
 40
0
 40
0
 40
0
 40
0
 40
1
 40
1
 40
1
 40
1
 10
164.391103
 20
203.144837
 30
0.0
 10
163.700748
 20
203.144837
 30
0.0
 10
163.141104
 20
203.704481
 30
0.0
 10
163.141104
 20
204.394839
 30
0.0
  0
SPLINE
  5
291
100
AcDbEntity
  8
Layer_1
 62
7
100
AcDbSpline
 70
8
 71
3
 72
8
 73
4
 74
0
 40
0
 40
0
 40
0
 40
0
 40
1
 40
1
 40
1
 40
1
 10
163.141104
 20
204.394839
 30
0.0
 10
163.141104
 20
205.085194
 30
0.0
 10
163.700748
 20
205.644837
 30
0.0
 10
164.391103
 20
205.644837
 30
0.0
  0
SPLINE
  5
292
100
AcDbEntity
  8
Layer_1
 62
7
100
AcDbSpline
 70
8
 71
3
 72
8
 73
4
 74
0
 40
0
 40
0
 40
0
 40
0
 40
1
 40
1
 40
1
 40
1
 10
164.391103
 20
205.644837
 30
0.0
 10
165.081458
 20
205.644837
 30
0.0
 10
165.641102
 20
205.085194
 30
0.0
 10
165.641102
 20
204.394839
 30
0.0
  0
LWPOLYLINE
  5
293
100
AcDbEntity
  8
Layer_1
 62
7
100
AcDbPolyline
 90
2
 70
0
 10
165.641102
 20
212.394831
 30
0.0
 10
165.641102
 20
212.394831
 30
0.0
  0
SPLINE
  5
294
100
AcDbEntity
  8
Layer_1
 62
7
100
AcDbSpline
 70
8
 71
3
 72
8
 73
4
 74
0
 40
0
 40
0
 40
0
 40
0
 40
1
 40
1
 40
1
 40
1
 10
221.641114
 20
211.894829
 30
0.0
 10
221.641114
 20
211.204471
 30
0.0
 10
221.081467
 20
210.644827
 30
0.0
 10
220.391112
 20
210.644827
 30
0.0
  0
SPLINE
  5
295
100
AcDbEntity
  8
Layer_1
 62
7
100
AcDbSpline
 70
8
 71
3
 72
8
 73
4
 74
0
 40
0
 40
0
 40
0
 40
0
 40
1
 40
1
 40
1
 40
1
 10
220.391112
 20
210.644827
 30
0.0
 10
219.700757
 20
210.644827
 30
0.0
 10
219.141113
 20
211.204471
 30
0.0
 10
219.141113
 20
211.894829
 30
0.0
  0
SPLINE
  5
296
100
AcDbEntity
  8
Layer_1
 62
7
100
AcDbSpline
 70
8
 71
3
 72
8
 73
4
 74
0
 40
0
 40
0
 40
0
 40
0
 40
1
 40
1
 40
1
 40
1
 10
219.141113
 20
211.894829
 30
0.0
 10
219.141113
 20
212.585184
 30
0.0
 10
219.700757
 20
213.144828
 30
0.0
 10
220.391112
 20
213.144828
 30
0.0
  0
SPLINE
  5
297
100
AcDbEntity
  8
Layer_1
 62
7
100
AcDbSpline
 70
8
 71
3
 72
8
 73
4
 74
0
 40
0
 40
0
 40
0
 40
0
 40
1
 40
1
 40
1
 40
1
 10
220.391112
 20
213.144828
 30
0.0
 10
221.081467
 20
213.144828
 30
0.0
 10
221.641114
 20
212.585184
 30
0.0
 10
221.641114
 20
211.894829
 30
0.0
  0
LWPOLYLINE
  5
298
100
AcDbEntity
  8
Layer_1
 62
7
100
AcDbPolyline
 90
2
 70
0
 10
165.641102
 20
204.394839
 30
0.0
 10
165.641102
 20
204.394839
 30
0.0
  0
SPLINE
  5
299
100
AcDbEntity
  8
Layer_1
 62
7
100
AcDbSpline
 70
8
 71
3
 72
8
 73
4
 74
0
 40
0
 40
0
 40
0
 40
0
 40
1
 40
1
 40
1
 40
1
 10
221.391102
 20
280.144841
 30
0.0
 10
221.391102
 20
279.454483
 30
0.0
 10
220.831458
 20
278.894839
 30
0.0
 10
220.141103
 20
278.894839
 30
0.0
  0
SPLINE
  5
29a
100
AcDbEntity
  8
Layer_1
 62
7
100
AcDbSpline
 70
8
 71
3
 72
8
 73
4
 74
0
 40
0
 40
0
 40
0
 40
0
 40
1
 40
1
 40
1
 40
1
 10
220.141103
 20
278.894839
 30
0.0
 10
219.450745
 20
278.894839
 30
0.0
 10
218.891101
 20
279.454483
 30
0.0
 10
218.891101
 20
280.144841
 30
0.0
  0
SPLINE
  5
29b
100
AcDbEntity
  8
Layer_1
 62
7
100
AcDbSpline
 70
8
 71
3
 72
8
 73
4
 74
0
 40
0
 40
0
 40
0
 40
0
 40
1
 40
1
 40
1
 40
1
 10
218.891101
 20
280.144841
 30
0.0
 10
218.891101
 20
280.835196
 30
0.0
 10
219.450745
 20
281.394840
 30
0.0
 10
220.141103
 20
281.394840
 30
0.0
  0
SPLINE
  5
29c
100
AcDbEntity
  8
Layer_1
 62
7
100
AcDbSpline
 70
8
 71
3
 72
8
 73
4
 74
0
 40
0
 40
0
 40
0
 40
0
 40
1
 40
1
 40
1
 40
1
 10
220.141103
 20
281.394840
 30
0.0
 10
220.831458
 20
281.394840
 30
0.0
 10
221.391102
 20
280.835196
 30
0.0
 10
221.391102
 20
280.144841
 30
0.0
  0
LWPOLYLINE
  5
29d
100
AcDbEntity
  8
Layer_1
 62
7
100
AcDbPolyline
 90
2
 70
0
 10
221.641114
 20
211.894829
 30
0.0
 10
221.641114
 20
211.894829
 30
0.0
  0
SPLINE
  5
29e
100
AcDbEntity
  8
Layer_1
 62
7
100
AcDbSpline
 70
8
 71
3
 72
8
 73
4
 74
0
 40
0
 40
0
 40
0
 40
0
 40
1
 40
1
 40
1
 40
1
 10
213.391109
 20
312.144833
 30
0.0
 10
213.391109
 20
311.454478
 30
0.0
 10
212.831463
 20
310.894832
 30
0.0
 10
212.141108
 20
310.894832
 30
0.0
  0
SPLINE
  5
29f
100
AcDbEntity
  8
Layer_1
 62
7
100
AcDbSpline
 70
8
 71
3
 72
8
 73
4
 74
0
 40
0
 40
0
 40
0
 40
0
 40
1
 40
1
 40
1
 40
1
 10
212.141108
 20
310.894832
 30
0.0
 10
211.450753
 20
310.894832
 30
0.0
 10
210.891109
 20
311.454478
 30
0.0
 10
210.891109
 20
312.144833
 30
0.0
  0
SPLINE
  5
2a0
100
AcDbEntity
  8
Layer_1
 62
7
100
AcDbSpline
 70
8
 71
3
 72
8
 73
4
 74
0
 40
0
 40
0
 40
0
 40
0
 40
1
 40
1
 40
1
 40
1
 10
210.891109
 20
312.144833
 30
0.0
 10
210.891109
 20
312.835188
 30
0.0
 10
211.450753
 20
313.394832
 30
0.0
 10
212.141108
 20
313.394832
 30
0.0
  0
SPLINE
  5
2a1
100
AcDbEntity
  8
Layer_1
 62
7
100
AcDbSpline
 70
8
 71
3
 72
8
 73
4
 74
0
 40
0
 40
0
 40
0
 40
0
 40
1
 40
1
 40
1
 40
1
 10
212.141108
 20
313.394832
 30
0.0
 10
212.831463
 20
313.394832
 30
0.0
 10
213.391109
 20
312.835188
 30
0.0
 10
213.391109
 20
312.144833
 30
0.0
  0
LWPOLYLINE
  5
2a2
100
AcDbEntity
  8
Layer_1
 62
7
100
AcDbPolyline
 90
2
 70
0
 10
221.391102
 20
280.144841
 30
0.0
 10
221.391102
 20
280.144841
 30
0.0
  0
SPLINE
  5
2a3
100
AcDbEntity
  8
Layer_1
 62
7
100
AcDbSpline
 70
8
 71
3
 72
8
 73
4
 74
0
 40
0
 40
0
 40
0
 40
0
 40
1
 40
1
 40
1
 40
1
 10
217.391104
 20
238.144837
 30
0.0
 10
217.391104
 20
237.454480
 30
0.0
 10
216.831460
 20
236.894836
 30
0.0
 10
216.141105
 20
236.894836
 30
0.0
  0
SPLINE
  5
2a4
100
AcDbEntity
  8
Layer_1
 62
7
100
AcDbSpline
 70
8
 71
3
 72
8
 73
4
 74
0
 40
0
 40
0
 40
0
 40
0
 40
1
 40
1
 40
1
 40
1
 10
216.141105
 20
236.894836
 30
0.0
 10
215.450750
 20
236.894836
 30
0.0
 10
214.891106
 20
237.454480
 30
0.0
 10
214.891106
 20
238.144837
 30
0.0
  0
SPLINE
  5
2a5
100
AcDbEntity
  8
Layer_1
 62
7
100
AcDbSpline
 70
8
 71
3
 72
8
 73
4
 74
0
 40
0
 40
0
 40
0
 40
0
 40
1
 40
1
 40
1
 40
1
 10
214.891106
 20
238.144837
 30
0.0
 10
214.891106
 20
238.835192
 30
0.0
 10
215.450750
 20
239.394836
 30
0.0
 10
216.141105
 20
239.394836
 30
0.0
  0
SPLINE
  5
2a6
100
AcDbEntity
  8
Layer_1
 62
7
100
AcDbSpline
 70
8
 71
3
 72
8
 73
4
 74
0
 40
0
 40
0
 40
0
 40
0
 40
1
 40
1
 40
1
 40
1
 10
216.141105
 20
239.394836
 30
0.0
 10
216.831460
 20
239.394836
 30
0.0
 10
217.391104
 20
238.835192
 30
0.0
 10
217.391104
 20
238.144837
 30
0.0
  0
LWPOLYLINE
  5
2a7
100
AcDbEntity
  8
Layer_1
 62
7
100
AcDbPolyline
 90
2
 70
0
 10
213.391109
 20
312.144833
 30
0.0
 10
213.391109
 20
312.144833
 30
0.0
  0
SPLINE
  5
2a8
100
AcDbEntity
  8
Layer_1
 62
7
100
AcDbSpline
 70
8
 71
3
 72
8
 73
4
 74
0
 40
0
 40
0
 40
0
 40
0
 40
1
 40
1
 40
1
 40
1
 10
229.391114
 20
352.144832
 30
0.0
 10
229.391114
 20
351.454477
 30
0.0
 10
228.831470
 20
350.894833
 30
0.0
 10
228.141112
 20
350.894833
 30
0.0
  0
SPLINE
  5
2a9
100
AcDbEntity
  8
Layer_1
 62
7
100
AcDbSpline
 70
8
 71
3
 72
8
 73
4
 74
0
 40
0
 40
0
 40
0
 40
0
 40
1
 40
1
 40
1
 40
1
 10
228.141112
 20
350.894833
 30
0.0
 10
227.450757
 20
350.894833
 30
0.0
 10
226.891113
 20
351.454477
 30
0.0
 10
226.891113
 20
352.144832
 30
0.0
  0
SPLINE
  5
2aa
100
AcDbEntity
  8
Layer_1
 62
7
100
AcDbSpline
 70
8
 71
3
 72
8
 73
4
 74
0
 40
0
 40
0
 40
0
 40
0
 40
1
 40
1
 40
1
 40
1
 10
226.891113
 20
352.144832
 30
0.0
 10
226.891113
 20
352.835190
 30
0.0
 10
227.450757
 20
353.394834
 30
0.0
 10
228.141112
 20
353.394834
 30
0.0
  0
SPLINE
  5
2ab
100
AcDbEntity
  8
Layer_1
 62
7
100
AcDbSpline
 70
8
 71
3
 72
8
 73
4
 74
0
 40
0
 40
0
 40
0
 40
0
 40
1
 40
1
 40
1
 40
1
 10
228.141112
 20
353.394834
 30
0.0
 10
228.831470
 20
353.394834
 30
0.0
 10
229.391114
 20
352.835190
 30
0.0
 10
229.391114
 20
352.144832
 30
0.0
  0
LWPOLYLINE
  5
2ac
100
AcDbEntity
  8
Layer_1
 62
7
100
AcDbPolyline
 90
2
 70
0
 10
217.391104
 20
238.144837
 30
0.0
 10
217.391104
 20
238.144837
 30
0.0
  0
LWPOLYLINE
  5
2ad
100
AcDbEntity
  8
Layer_1
 62
7
100
AcDbPolyline
 90
2
 70
0
 10
229.391114
 20
352.144832
 30
0.0
 10
229.391114
 20
352.144832
 30
0.0
  0
LWPOLYLINE
  5
2ae
100
AcDbEntity
  8
Layer_1
 62
7
100
AcDbPolyline
 90
5
 70
0
 10
98.141107
 20
196.144834
 30
0.0
 10
102.141107
 20
196.144834
 30
0.0
 10
102.141107
 20
192.144833
 30
0.0
 10
98.141107
 20
192.144833
 30
0.0
 10
98.141107
 20
196.144834
 30
0.0
  0
LWPOLYLINE
  5
2af
100
AcDbEntity
  8
Layer_1
 62
7
100
AcDbPolyline
 90
17
 70
0
 10
61.641107
 20
152.144916
 30
0.0
 10
61.526925
 20
151.570933
 30
0.0
 10
61.201768
 20
151.084269
 30
0.0
 10
60.715133
 20
150.759092
 30
0.0
 10
60.141107
 20
150.644905
 30
0.0
 10
59.567081
 20
150.759092
 30
0.0
 10
59.080448
 20
151.084269
 30
0.0
 10
58.755288
 20
151.570933
 30
0.0
 10
58.641107
 20
152.144916
 30
0.0
 10
58.755288
 20
152.718928
 30
0.0
 10
59.080448
 20
153.205564
 30
0.0
 10
59.567081
 20
153.530740
 30
0.0
 10
60.141107
 20
153.644927
 30
0.0
 10
60.715133
 20
153.530740
 30
0.0
 10
61.201768
 20
153.205564
 30
0.0
 10
61.526925
 20
152.718928
 30
0.0
 10
61.641107
 20
152.144916
 30
0.0
  0
LWPOLYLINE
  5
2b0
100
AcDbEntity
  8
Layer_1
 62
7
100
AcDbPolyline
 90
17
 70
0
 10
141.641105
 20
152.144916
 30
0.0
 10
141.526923
 20
151.570933
 30
0.0
 10
141.201767
 20
151.084269
 30
0.0
 10
140.715131
 20
150.759092
 30
0.0
 10
140.141105
 20
150.644905
 30
0.0
 10
139.567079
 20
150.759092
 30
0.0
 10
139.080446
 20
151.084269
 30
0.0
 10
138.755287
 20
151.570933
 30
0.0
 10
138.641105
 20
152.144916
 30
0.0
 10
138.755287
 20
152.718928
 30
0.0
 10
139.080446
 20
153.205564
 30
0.0
 10
139.567079
 20
153.530740
 30
0.0
 10
140.141105
 20
153.644927
 30
0.0
 10
140.715131
 20
153.530740
 30
0.0
 10
141.201767
 20
153.205564
 30
0.0
 10
141.526923
 20
152.718928
 30
0.0
 10
141.641105
 20
152.144916
 30
0.0
  0
LWPOLYLINE
  5
2b1
100
AcDbEntity
  8
Layer_1
 62
7
100
AcDbPolyline
 90
5
 70
0
 10
188.141105
 20
108.144874
 30
0.0
 10
192.141097
 20
108.144874
 30
0.0
 10
192.141097
 20
104.144882
 30
0.0
 10
188.141105
 20
104.144882
 30
0.0
 10
188.141105
 20
108.144874
 30
0.0
  0
LWPOLYLINE
  5
2b2
100
AcDbEntity
  8
Layer_1
 62
7
100
AcDbPolyline
 90
5
 70
0
 10
8.141114
 20
108.144874
 30
0.0
 10
12.141106
 20
108.144874
 30
0.0
 10
12.141106
 20
104.144882
 30
0.0
 10
8.141114
 20
104.144882
 30
0.0
 10
8.141114
 20
108.144874
 30
0.0
  0
LWPOLYLINE
  5
2b3
100
AcDbEntity
  8
Layer_1
 62
7
100
AcDbPolyline
 90
5
 70
0
 10
164.141099
 20
172.144831
 30
0.0
 10
176.141098
 20
172.144831
 30
0.0
 10
176.141098
 20
168.144839
 30
0.0
 10
164.141099
 20
168.144839
 30
0.0
 10
164.141099
 20
172.144831
 30
0.0
  0
LWPOLYLINE
  5
2b4
100
AcDbEntity
  8
Layer_1
 62
7
100
AcDbPolyline
 90
5
 70
0
 10
108.146808
 20
172.144775
 30
0.0
 10
108.146808
 20
168.144783
 30
0.0
 10
116.146809
 20
168.144783
 30
0.0
 10
116.146809
 20
172.144775
 30
0.0
 10
108.146808
 20
172.144775
 30
0.0
  0
LWPOLYLINE
  5
2b5
100
AcDbEntity
  8
Layer_1
 62
7
100
AcDbPolyline
 90
5
 70
0
 10
84.141101
 20
168.144811
 30
0.0
 10
84.141101
 20
172.144803
 30
0.0
 10
92.141099
 20
172.144803
 30
0.0
 10
92.141099
 20
168.144811
 30
0.0
 10
84.141101
 20
168.144811
 30
0.0
  0
LWPOLYLINE
  5
2b6
100
AcDbEntity
  8
Layer_1
 62
7
100
AcDbPolyline
 90
5
 70
0
 10
24.141101
 20
172.144831
 30
0.0
 10
36.141098
 20
172.144831
 30
0.0
 10
36.141098
 20
168.144839
 30
0.0
 10
24.141101
 20
168.144839
 30
0.0
 10
24.141101
 20
172.144831
 30
0.0
  0
LWPOLYLINE
  5
2b7
100
AcDbEntity
  8
Layer_1
 62
7
100
AcDbPolyline
 90
5
 70
0
 10
164.141099
 20
112.144838
 30
0.0
 10
176.141098
 20
112.144838
 30
0.0
 10
176.141098
 20
108.144818
 30
0.0
 10
164.141099
 20
108.144818
 30
0.0
 10
164.141099
 20
112.144838
 30
0.0
  0
LWPOLYLINE
  5
2b8
100
AcDbEntity
  8
Layer_1
 62
7
100
AcDbPolyline
 90
5
 70
0
 10
132.141107
 20
112.144923
 30
0.0
 10
132.141107
 20
108.144903
 30
0.0
 10
144.141100
 20
108.144818
 30
0.0
 10
144.141100
 20
112.144838
 30
0.0
 10
132.141107
 20
112.144923
 30
0.0
  0
LWPOLYLINE
  5
2b9
100
AcDbEntity
  8
Layer_1
 62
7
100
AcDbPolyline
 90
5
 70
0
 10
56.141098
 20
112.144838
 30
0.0
 10
56.141098
 20
108.144818
 30
0.0
 10
68.141105
 20
108.144903
 30
0.0
 10
68.141105
 20
112.144923
 30
0.0
 10
56.141098
 20
112.144838
 30
0.0
  0
LWPOLYLINE
  5
2ba
100
AcDbEntity
  8
Layer_1
 62
7
100
AcDbPolyline
 90
5
 70
0
 10
24.141101
 20
108.144818
 30
0.0
 10
24.141101
 20
112.144838
 30
0.0
 10
36.141098
 20
112.144838
 30
0.0
 10
36.141098
 20
108.144818
 30
0.0
 10
24.141101
 20
108.144818
 30
0.0
  0
SPLINE
  5
2bb
100
AcDbEntity
  8
Layer_1
 62
7
100
AcDbSpline
 70
8
 71
3
 72
8
 73
4
 74
0
 40
0
 40
0
 40
0
 40
0
 40
1
 40
1
 40
1
 40
1
 10
0.141109
 20
128.144834
 30
0.0
 10
0.141109
 20
122.759668
 30
0.0
 10
0.141109
 20
111.989447
 30
0.0
 10
0.141109
 20
111.989447
 30
0.0
  0
LWPOLYLINE
  5
2bc
100
AcDbEntity
  8
Layer_1
 62
7
100
AcDbPolyline
 90
11
 70
0
 10
4.141106
 20
200.144888
 30
0.0
 10
4.141106
 20
192.144904
 30
0.0
 10
0.141106
 20
192.144904
 30
0.0
 10
0.141106
 20
180.144900
 30
0.0
 10
4.141106
 20
180.144900
 30
0.0
 10
4.141109
 20
168.144783
 30
0.0
 10
0.141109
 20
168.144783
 30
0.0
 10
0.141109
 20
152.144815
 30
0.0
 10
4.141101
 20
152.144815
 30
0.0
 10
4.141101
 20
128.144834
 30
0.0
 10
0.141109
 20
128.144834
 30
0.0
  0
SPLINE
  5
2bd
100
AcDbEntity
  8
Layer_1
 62
7
100
AcDbSpline
 70
8
 71
3
 72
8
 73
4
 74
0
 40
0
 40
0
 40
0
 40
0
 40
1
 40
1
 40
1
 40
1
 10
200.141109
 20
112.166259
 30
0.0
 10
200.141109
 20
112.166259
 30
0.0
 10
200.141070
 20
122.818652
 30
0.0
 10
200.141070
 20
128.144863
 30
0.0
  0
LWPOLYLINE
  5
2be
100
AcDbEntity
  8
Layer_1
 62
7
100
AcDbPolyline
 90
6
 70
0
 10
0.141109
 20
111.989447
 30
0.0
 10
4.141109
 20
112.144810
 30
0.0
 10
4.141109
 20
100.144806
 30
0.0
 10
196.141109
 20
100.144806
 30
0.0
 10
196.141148
 20
112.144810
 30
0.0
 10
200.141109
 20
112.166259
 30
0.0
  0
LWPOLYLINE
  5
2bf
100
AcDbEntity
  8
Layer_1
 62
7
100
AcDbPolyline
 90
12
 70
0
 10
200.141070
 20
128.144863
 30
0.0
 10
196.141049
 20
128.144863
 30
0.0
 10
196.141049
 20
152.144843
 30
0.0
 10
200.141070
 20
152.144843
 30
0.0
 10
200.141120
 20
168.144867
 30
0.0
 10
196.141120
 20
168.144867
 30
0.0
 10
196.141106
 20
180.144928
 30
0.0
 10
200.141106
 20
180.144928
 30
0.0
 10
200.141106
 20
192.144904
 30
0.0
 10
196.141106
 20
192.144904
 30
0.0
 10
196.141106
 20
200.144888
 30
0.0
 10
4.141106
 20
200.144888
 30
0.0
  0
LWPOLYLINE
  5
2c0
100
AcDbEntity
  8
Layer_1
 62
7
100
AcDbPolyline
 90
5
 70
0
 10
192.141105
 20
172.144888
 30
0.0
 10
188.141113
 20
172.144888
 30
0.0
 10
188.141113
 20
176.144908
 30
0.0
 10
192.141105
 20
176.144908
 30
0.0
 10
192.141105
 20
172.144888
 30
0.0
  0
LWPOLYLINE
  5
2c1
100
AcDbEntity
  8
Layer_1
 62
7
100
AcDbPolyline
 90
5
 70
0
 10
188.141094
 20
196.144904
 30
0.0
 10
192.141086
 20
196.144904
 30
0.0
 10
192.141086
 20
192.144884
 30
0.0
 10
188.141094
 20
192.144884
 30
0.0
 10
188.141094
 20
196.144904
 30
0.0
  0
LWPOLYLINE
  5
2c2
100
AcDbEntity
  8
Layer_1
 62
7
100
AcDbPolyline
 90
5
 70
0
 10
8.141127
 20
172.144888
 30
0.0
 10
12.141128
 20
172.144888
 30
0.0
 10
12.141128
 20
176.144908
 30
0.0
 10
8.141127
 20
176.144908
 30
0.0
 10
8.141127
 20
172.144888
 30
0.0
  0
LWPOLYLINE
  5
2c3
100
AcDbEntity
  8
Layer_1
 62
7
100
AcDbPolyline
 90
5
 70
0
 10
8.141106
 20
192.144884
 30
0.0
 10
12.141107
 20
192.144884
 30
0.0
 10
12.141107
 20
196.144904
 30
0.0
 10
8.141106
 20
196.144904
 30
0.0
 10
8.141106
 20
192.144884
 30
0.0
  0
LWPOLYLINE
  5
2c4
100
AcDbEntity
  8
Layer_1
 62
7
100
AcDbPolyline
 90
5
 70
0
 10
98.141107
 20
96.144842
 30
0.0
 10
102.141107
 20
96.144842
 30
0.0
 10
102.141107
 20
92.144850
 30
0.0
 10
98.141107
 20
92.144850
 30
0.0
 10
98.141107
 20
96.144842
 30
0.0
  0
LWPOLYLINE
  5
2c5
100
AcDbEntity
  8
Layer_1
 62
7
100
AcDbPolyline
 90
17
 70
0
 10
61.641107
 20
52.144930
 30
0.0
 10
61.526925
 20
51.570946
 30
0.0
 10
61.201768
 20
51.084282
 30
0.0
 10
60.715133
 20
50.759106
 30
0.0
 10
60.141107
 20
50.644919
 30
0.0
 10
59.567081
 20
50.759106
 30
0.0
 10
59.080448
 20
51.084282
 30
0.0
 10
58.755288
 20
51.570946
 30
0.0
 10
58.641107
 20
52.144930
 30
0.0
 10
58.755288
 20
52.718942
 30
0.0
 10
59.080448
 20
53.205578
 30
0.0
 10
59.567081
 20
53.530754
 30
0.0
 10
60.141107
 20
53.644941
 30
0.0
 10
60.715133
 20
53.530754
 30
0.0
 10
61.201768
 20
53.205578
 30
0.0
 10
61.526925
 20
52.718942
 30
0.0
 10
61.641107
 20
52.144930
 30
0.0
  0
LWPOLYLINE
  5
2c6
100
AcDbEntity
  8
Layer_1
 62
7
100
AcDbPolyline
 90
17
 70
0
 10
141.641105
 20
52.144930
 30
0.0
 10
141.526923
 20
51.570946
 30
0.0
 10
141.201767
 20
51.084282
 30
0.0
 10
140.715131
 20
50.759106
 30
0.0
 10
140.141105
 20
50.644919
 30
0.0
 10
139.567079
 20
50.759106
 30
0.0
 10
139.080446
 20
51.084282
 30
0.0
 10
138.755287
 20
51.570946
 30
0.0
 10
138.641105
 20
52.144930
 30
0.0
 10
138.755287
 20
52.718942
 30
0.0
 10
139.080446
 20
53.205578
 30
0.0
 10
139.567079
 20
53.530754
 30
0.0
 10
140.141105
 20
53.644941
 30
0.0
 10
140.715131
 20
53.530754
 30
0.0
 10
141.201767
 20
53.205578
 30
0.0
 10
141.526923
 20
52.718942
 30
0.0
 10
141.641105
 20
52.144930
 30
0.0
  0
LWPOLYLINE
  5
2c7
100
AcDbEntity
  8
Layer_1
 62
7
100
AcDbPolyline
 90
5
 70
0
 10
188.141105
 20
8.144905
 30
0.0
 10
192.141097
 20
8.144905
 30
0.0
 10
192.141097
 20
4.144913
 30
0.0
 10
188.141105
 20
4.144913
 30
0.0
 10
188.141105
 20
8.144905
 30
0.0
  0
LWPOLYLINE
  5
2c8
100
AcDbEntity
  8
Layer_1
 62
7
100
AcDbPolyline
 90
5
 70
0
 10
8.141113
 20
8.144905
 30
0.0
 10
12.141105
 20
8.144905
 30
0.0
 10
12.141105
 20
4.144913
 30
0.0
 10
8.141113
 20
4.144913
 30
0.0
 10
8.141113
 20
8.144905
 30
0.0
  0
LWPOLYLINE
  5
2c9
100
AcDbEntity
  8
Layer_1
 62
7
100
AcDbPolyline
 90
5
 70
0
 10
164.141099
 20
72.144834
 30
0.0
 10
176.141098
 20
72.144834
 30
0.0
 10
176.141098
 20
68.144842
 30
0.0
 10
164.141099
 20
68.144842
 30
0.0
 10
164.141099
 20
72.144834
 30
0.0
  0
LWPOLYLINE
  5
2ca
100
AcDbEntity
  8
Layer_1
 62
7
100
AcDbPolyline
 90
5
 70
0
 10
108.146808
 20
72.144777
 30
0.0
 10
108.146808
 20
68.144785
 30
0.0
 10
116.146809
 20
68.144785
 30
0.0
 10
116.146809
 20
72.144777
 30
0.0
 10
108.146808
 20
72.144777
 30
0.0
  0
LWPOLYLINE
  5
2cb
100
AcDbEntity
  8
Layer_1
 62
7
100
AcDbPolyline
 90
5
 70
0
 10
84.141101
 20
68.144813
 30
0.0
 10
84.141101
 20
72.144805
 30
0.0
 10
92.141099
 20
72.144805
 30
0.0
 10
92.141099
 20
68.144813
 30
0.0
 10
84.141101
 20
68.144813
 30
0.0
  0
LWPOLYLINE
  5
2cc
100
AcDbEntity
  8
Layer_1
 62
7
100
AcDbPolyline
 90
5
 70
0
 10
24.141100
 20
72.144834
 30
0.0
 10
36.141098
 20
72.144834
 30
0.0
 10
36.141098
 20
68.144842
 30
0.0
 10
24.141100
 20
68.144842
 30
0.0
 10
24.141100
 20
72.144834
 30
0.0
  0
LWPOLYLINE
  5
2cd
100
AcDbEntity
  8
Layer_1
 62
7
100
AcDbPolyline
 90
5
 70
0
 10
164.141099
 20
12.144869
 30
0.0
 10
176.141098
 20
12.144869
 30
0.0
 10
176.141098
 20
8.144849
 30
0.0
 10
164.141099
 20
8.144849
 30
0.0
 10
164.141099
 20
12.144869
 30
0.0
  0
LWPOLYLINE
  5
2ce
100
AcDbEntity
  8
Layer_1
 62
7
100
AcDbPolyline
 90
5
 70
0
 10
132.141107
 20
12.144954
 30
0.0
 10
132.141107
 20
8.144933
 30
0.0
 10
144.141100
 20
8.144849
 30
0.0
 10
144.141100
 20
12.144869
 30
0.0
 10
132.141107
 20
12.144954
 30
0.0
  0
LWPOLYLINE
  5
2cf
100
AcDbEntity
  8
Layer_1
 62
7
100
AcDbPolyline
 90
5
 70
0
 10
56.141098
 20
12.144869
 30
0.0
 10
56.141098
 20
8.144849
 30
0.0
 10
68.141105
 20
8.144933
 30
0.0
 10
68.141105
 20
12.144954
 30
0.0
 10
56.141098
 20
12.144869
 30
0.0
  0
LWPOLYLINE
  5
2d0
100
AcDbEntity
  8
Layer_1
 62
7
100
AcDbPolyline
 90
5
 70
0
 10
24.141100
 20
8.144849
 30
0.0
 10
24.141100
 20
12.144869
 30
0.0
 10
36.141098
 20
12.144869
 30
0.0
 10
36.141098
 20
8.144849
 30
0.0
 10
24.141100
 20
8.144849
 30
0.0
  0
SPLINE
  5
2d1
100
AcDbEntity
  8
Layer_1
 62
7
100
AcDbSpline
 70
8
 71
3
 72
8
 73
4
 74
0
 40
0
 40
0
 40
0
 40
0
 40
1
 40
1
 40
1
 40
1
 10
0.141108
 20
28.144837
 30
0.0
 10
0.141108
 20
22.759670
 30
0.0
 10
0.141108
 20
11.989477
 30
0.0
 10
0.141108
 20
11.989477
 30
0.0
  0
LWPOLYLINE
  5
2d2
100
AcDbEntity
  8
Layer_1
 62
7
100
AcDbPolyline
 90
11
 70
0
 10
4.141105
 20
100.144890
 30
0.0
 10
4.141105
 20
92.144906
 30
0.0
 10
0.141106
 20
92.144906
 30
0.0
 10
0.141106
 20
80.144902
 30
0.0
 10
4.141105
 20
80.144902
 30
0.0
 10
4.141108
 20
68.144785
 30
0.0
 10
0.141108
 20
68.144785
 30
0.0
 10
0.141108
 20
52.144817
 30
0.0
 10
4.141100
 20
52.144817
 30
0.0
 10
4.141100
 20
28.144837
 30
0.0
 10
0.141108
 20
28.144837
 30
0.0
  0
LWPOLYLINE
  5
2d3
100
AcDbEntity
  8
Layer_1
 62
7
100
AcDbPolyline
 90
4
 70
0
 10
0.141108
 20
11.989477
 30
0.0
 10
4.141108
 20
12.144841
 30
0.0
 10
4.141108
 20
0.144836
 30
0.0
 10
196.141109
 20
0.144836
 30
0.0
  0
LWPOLYLINE
  5
2d4
100
AcDbEntity
  8
Layer_1
 62
7
100
AcDbPolyline
 90
5
 70
0
 10
192.141105
 20
72.144890
 30
0.0
 10
188.141113
 20
72.144890
 30
0.0
 10
188.141113
 20
76.144910
 30
0.0
 10
192.141105
 20
76.144910
 30
0.0
 10
192.141105
 20
72.144890
 30
0.0
  0
LWPOLYLINE
  5
2d5
100
AcDbEntity
  8
Layer_1
 62
7
100
AcDbPolyline
 90
5
 70
0
 10
188.141094
 20
96.144927
 30
0.0
 10
192.141086
 20
96.144927
 30
0.0
 10
192.141086
 20
92.144906
 30
0.0
 10
188.141094
 20
92.144906
 30
0.0
 10
188.141094
 20
96.144927
 30
0.0
  0
LWPOLYLINE
  5
2d6
100
AcDbEntity
  8
Layer_1
 62
7
100
AcDbPolyline
 90
5
 70
0
 10
8.141126
 20
72.144890
 30
0.0
 10
12.141127
 20
72.144890
 30
0.0
 10
12.141127
 20
76.144910
 30
0.0
 10
8.141126
 20
76.144910
 30
0.0
 10
8.141126
 20
72.144890
 30
0.0
  0
LWPOLYLINE
  5
2d7
100
AcDbEntity
  8
Layer_1
 62
7
100
AcDbPolyline
 90
5
 70
0
 10
8.141106
 20
92.144906
 30
0.0
 10
12.141106
 20
92.144906
 30
0.0
 10
12.141106
 20
96.144927
 30
0.0
 10
8.141106
 20
96.144927
 30
0.0
 10
8.141106
 20
92.144906
 30
0.0
  0
ENDSEC
  0
SECTION
  2
OBJECTS
  0
DICTIONARY
  5
C
330
0
100
AcDbDictionary
  3
ACAD_GROUP
350
D
  3
ACAD_MLINESTYLE
350
17
  0
DICTIONARY
  5
D
330
C
100
AcDbDictionary
  0
DICTIONARY
  5
1A
330
C
100
AcDbDictionary
  0
DICTIONARY
  5
17
330
C
100
AcDbDictionary
  3
STANDARD
350
18
  0
DICTIONARY
  5
19
330
C
100
AcDbDictionary
  0
ENDSEC
  0
EOF
